PrimaNota.ru - самый крупный в мире бесплатный архив песенных текстов, аккордов, табулатур и нот


Frank Iero - 25mg Just Aint Enough For Me - таба, видео

Регистрация Запомнить меня
Войти через:  Facebook Google Twitter Vk Yandex Mail.ru

Frank Iero - 25mg Just Aint Enough For Me - таба, видео

Печатать
Просмотров: 449
Уроки эстрадного вокала в Санкт-Петербурге
-------------------------------------------------------------------------------
                    2.5MG JUST AINT ENOUGH FOR ME- Frank Iero
-------------------------------------------------------------------------------
Tabbed by: antonio.gor
E-mail: antonio.gor@hotmail.com

Tuning: Half-Step Down

Intro (Tens and twelves, not ones and twos)
e|------10----10----10------|------------------------------------------------|
B|----12----12----12----12~-|----10---10---10--------------------------------|
G|--12----12----12----12----|--12---12---12---12~----------------------------|
D|--------------------------|-0----0----0----0-------------------------------|
A|--------------------------|------------------------------------------------|
E|--------------------------|------------------------------------------------|

e|------10----10----12-10---|------------------------------------------------|
B|----12----12----12-----12~|----10---12~-10-12~-----------------------------|
G|--12----12----12----------|--12---12---------------------------------------|
D|--------------------------|-0----0-----------------------------------------|
A|--------------------------|------------------------------------------------|
E|--------------------------|------------------------------------------------|

Verse (Listen to song for the rhythm/strumming pattern)
e|---------------------------------------------------------------------------|
B|-3-3-5---3-3-5---5-8---5-8-------------------------------------------------|
G|-4-0-0---4-0-0---5-7---5-7-------------------------------------------------|
D|-5-0-0---5-0-0---5-5---5-5-------------------------------------------------|
A|---------------------------------------------------------------------------|
E|---------------------------------------------------------------------------|

e|---------------------------------------------------------------------------|
B|-3-3-5---3-3-5---5-8---7-10------------------------------------------------|
G|-4-0-0---4-0-0---5-7---7-7-------------------------------------------------|
D|-5-0-0---5-0-0---5-5---7-7-------------------------------------------------|
A|---------------------------------------------------------------------------|
E|---------------------------------------------------------------------------|

Chorus (Slide the G chord up to the 9th fret. Listen to song for timing)
e|-3-----3-------------------------------------------------------------------|
B|-3-----3-----1-1---1-1-----------------------------------------------------|
G|-0-----0-----0-2---0-2-----------(DO THIS)---------------------------------|
D|-0-----0-----2-2---2-2-----------(--X2---)---------------------------------|
A|-2-8---2-8---3-----3-------------------------------------------------------|
E|-3-9---3-9-----------------------------------------------------------------|
   G     G     C Am  C Am        

Post Chorus
e|------10----10----12-10----------------------------------------------------|
B|----12----12----12-----12~---(DO THIS)--5-8---5-8--------------------------|
G|--12----12----12-------------(--X2---)--5-7---5-7--------------------------|
D|----------------------------------------5-5---5-5--------------------------|
A|---------------------------------------------------------------------------|
E|---------------------------------------------------------------------------|

e|---------------------------------------------------------------------------|
B|-3-3-5---3-3-5---5-8---7-10------------------------------------------------|
G|-4-0-0---4-0-0---5-7---7-7-------------------------------------------------|
D|-5-0-0---5-0-0---5-5---7-7-------------------------------------------------|
A|---------------------------------------------------------------------------|
E|---------------------------------------------------------------------------|

Chorus (Slide the G chord up to the 9th fret. Listen to song for timing)
e|-3-----3-------------------------------------------------------------------|
B|-3-----3-----1-1---1-1-----------------------------------------------------|
G|-0-----0-----0-2---0-2-----------(DO THIS)---------------------------------|
D|-0-----0-----2-2---2-2-----------(--X2---)---------------------------------|
A|-2-8---2-8---3-----3-------------------------------------------------------|
E|-3-9---3-9-----------------------------------------------------------------|
   G     G     C Am  C Am        

Bridge (Slide to every fret)
e|---------------------------------------------------------------------------|
B|---------------------------------------------------------------------------|
G|-------------------------------------------------------------(DO THIS)-----|
D|-------------------------------------------------------------(--X4---)-----|
A|---------------------------------------------------------------------------|
E|-3-(x3)--9-(x5)--3-(x3)--9-(x5)--3-(x3)--9-(x5)--5-(x2)--8-(x3)-7-(x2)-----|

Chorus (Slide the G chord up to the 9th fret. Listen to song for timing)
e|-3-----3-------------------------------------------------------------------|
B|-3-----3-----1-1---1-1-----------------------------------------------------|
G|-0-----0-----0-2---0-2-----------(DO THIS)---------------------------------|
D|-0-----0-----2-2---2-2-----------(--X2---)---------------------------------|
A|-2-8---2-8---3-----3-------------------------------------------------------|
E|-3-9---3-9-----------------------------------------------------------------|
   G     G     C Am  C Am    

e|-3~------------------------------------------------------------------------|
B|-3~------------------------------------------------------------------------|
G|-0~------------------------------------------------------------------------|
D|-0~------------------------------------------------------------------------|
A|-2~------------------------------------------------------------------------|
E|-3~------------------------------------------------------------------------|
   G

************************************

| /   slide up
| \   slide down
| h   hammer-on
| p   pull-off
| ~   vibrato
| +   harmonic
| x   Mute note
| b   Bend
| pb  Pre-bend
| br  Bend release
| pbr Pre-bend release
| brb Bend release bend

************************************
Добавлено: 04.08.2014
Другие материалы по этой песне:
  • Аккорды и текст

Страница создана 04.08.2014
http://primanota.ru/frank-iero/25mg-just-aint-enough-for-me-chords.htm
Привет, Гость.
Предлагаем пройти революционный курс по гитаре.
Подарок от PrimaNota.Ru, забирай!