PrimaNota.ru - самый крупный в мире бесплатный архив песенных текстов, аккордов, табулатур и нот


Frank Carter The Rattlesnakes - Trouble - таба, видео

Регистрация Запомнить меня
Войти через:  Facebook Google Twitter Vk Yandex Mail.ru

Frank Carter The Rattlesnakes - Trouble - таба, видео

Печатать
Просмотров: 119
Уроки эстрадного вокала в Санкт-Петербурге
-------------------------------------------------------------------------------
                Trouble - Frank Carter And The Rattlesnakes
-------------------------------------------------------------------------------
Tabbed by: Aaron Calles


Tuning: Drop D

Intro

e|-------------------------------------------|
B|-------------------------------------------|
G|-------------------------------------------| x1
D|-------------------------------------------|
A|--6676-676-6769999----6676-676-6766666-----|
D|--6676-676-6769999----6676-676-6766666-----|

Verse

e|-------------------------------------------|
B|-------------------------------------------|
G|-------------------------------------------| x4
D|-------------------------------------------|
A|--6676-676-6769999-------------------------|
D|--6676-676-6769999-------------------------|

1st Chorus

e|--------------------------------------------|
B|--------------------------------------------|
G|--------------------------------------------|
D|--------------------------------------------| x4
A|-77777777333333336666666666666666-----------|
D|-77777777333333336666666666666666-----------|

Verse x4

2nd Chorus

e|--------------------------------------------|
B|--------------------------------------------|
G|--------------------------------------------|
D|--------------------------------------------| x2
A|-77777777333333336666666666666666-----------|
D|-77777777333333336666666666666666-----------|

e|--------------------------------------------|
B|--------------------------------------------|
G|--------------------------------------------|
D|--------------------------------------------| x3
A|-99999999999999996666666666666666-----------|
D|-99999999999999996666666666666666-----------|

e|--------------------------------------------|
B|--------------------------------------------|
G|--------------------------------------------|
D|--------------------------------------------| x3
A|-99999999999999997777777777777777-----------|
D|-99999999999999997777777777777777-----------|

e|--------------------------------------------|
B|--------------------------------------------|
G|--------------------------------------------|
D|--------------------------------------------|
A|-6666666666666666-66------------------------|
D|-6666666666666666-66------------------------|

Solo (A little sloppy but this is what I came up with, pretty similar if you ask me)

e|----9b~~~~~----------7------7-7--------------------------------------------|
B|--------------9-9-7h9-9------9-9~------------------------------------------|
G|---------------------------------------------------------------------------|
D|---------------------------------------------------------------------------|
A|---------------------------------------------------------------------------|
D|---------------------------------------------------------------------------|

e|----------------------------------------------7-7--------------------------|
B|----15~~~~~14~~~~~12~~~~~9~~~~~7~~~~~--999999--9-9-------------------------|
G|---------------------------------------------------------------------------|
D|---------------------------------------------------------------------------|
A|---------------------------------------------------------------------------|
D|---------------------------------------------------------------------------|

e|----------------------7------7----------------------9b~---------------9b~--|
B|--15b~~~12b~~~~9-9-7h9-97-7h9-97-----9-9129912991299---9-9129912991299-----|
G|-------------------------8------8------------------------------------------|
D|---------------------------------------------------------------------------|
A|---------------------------------------------------------------------------|
D|---------------------------------------------------------------------------|

Repeat 2nd chorus x1



************************************

| /   slide up
| \   slide down
| h   hammer-on
| p   pull-off
| ~   vibrato
| +   harmonic
| x   Mute note
| b   Bend
| pb  Pre-bend
| br  Bend release
| pbr Pre-bend release
| brb Bend release bend

************************************
Добавлено: 03.05.2016
Другие материалы по этой песне:
  • Аккорды и текст

Страница создана 03.05.2016
http://primanota.ru/frank-carter-rattlesnakes/trouble-chords.htm
Привет, Гость.
Предлагаем пройти революционный курс по гитаре.
Подарок от PrimaNota.Ru, забирай!