PrimaNota.ru - самый крупный в мире бесплатный архив песенных текстов, аккордов, табулатур и нот


Frank Carter The Rattlesnakes - Primary Explosive - таба, видео

Регистрация Запомнить меня
Войти через:  Facebook Google Twitter Vk Yandex Mail.ru

Frank Carter The Rattlesnakes - Primary Explosive - таба, видео

Печатать
Просмотров: 71
-------------------------------------------------------------------------------
                             PRIMARY EXPLOSIVE - FRANK CARTER & THE RATTLESNAKES
-------------------------------------------------------------------------------
Tabbed by: SAM MOON

SINGLE COIL THE $H!T OUT OF IT.

Tuning:

e|----------|------------------------------|-----------------------------------|
B|----------|------------------------------|-----------------------------------|
G|----------|------------------------------|-----------------------------------|
D|----------|------------------------------|--X3-------------------------------|  X2
A|--7-6-5-4-|-3--3-1-3--3-1-3--3-1-3-4-4-4-|------3--3-1-3--3-1-3-STOP---------|    
D|--7-6-5-4-|-3--3-1-3--3-1-3--3-1-3-4-4-4-|------3--3-1-3--3-1-3-STOP---------|

e|----------|------------------------------|-----------------------------|
B|----------|------------------------------|-----------------------------|
G|----------|------------------------------|-----------------------------|
D|----------|------------------------------|--X3-------------------------|  
A|--7-6-5-4-|-3--3-1-3--3-1-3--3-1-3-4-4-4-|------3--3-1-3--3-1----------|    
D|--7-6-5-4-|-3--3-1-3--3-1-3--3-1-3-4-4-4-|------3--3-1-3--3-1----------|

e|--------------------------------------------------------------------------------|
B|--------------------------------------------------------------------------------|
G|--------------------------------------------------------------------------------|
D|--------------------------------------------------------------------------------| 
A|--77777777777777776666666666666666--3--3-3--3-3-3-3-3--3---3--3--3--3--3-3--333-|
D|--77777777777777776666666666666666--3--3-3--3-3-3-3-3--3---3--3--3--3--3-3--333-|

e|----------------------------------------------------------------------|
B|----------------------------------------------------------------------|
G|----------------------------------------------------------------------|
D|----------------------------------------------------------------------| 
A|--77777777777777776666666666666666--3--3-3--3-3-3-3-3--3---3--3--3--3-|
D|--77777777777777776666666666666666--3--3-3--3-3-3-3-3--3---3--3--3--3-|

e|----------|------------------------------|-----------------------------------|
B|----------|------------------------------|-----------------------------------|
G|----------|------------------------------|-----------------------------------|
D|----------|------------------------------|--X3-------------------------------|  
A|--7-6-5-4-|-3--3-1-3--3-1-3--3-1-3-4-4-4-|------3--3-1-3--3-1-3-STOP---------|    
D|--7-6-5-4-|-3--3-1-3--3-1-3--3-1-3-4-4-4-|------3--3-1-3--3-1-3-STOP---------|

e|----------|------------------------------|-----------------------------|
B|----------|------------------------------|-----------------------------|
G|----------|------------------------------|-----------------------------|
D|----------|------------------------------|--X3-------------------------|  
A|--7-6-5-4-|-3--3-1-3--3-1-3--3-1-3-4-4-4-|------3--3-1-3--3-1----------|    
D|--7-6-5-4-|-3--3-1-3--3-1-3--3-1-3-4-4-4-|------3--3-1-3--3-1----------|

e|--------------------------------------------------------------------------------|
B|--------------------------------------------------------------------------------|
G|--------------------------------------------------------------------------------|
D|--------------------------------------------------------------------------------| 
A|--77777777777777776666666666666666--3--3-3--3-3-3-3-3--3---3--3--3--3--3-3--333-|
D|--77777777777777776666666666666666--3--3-3--3-3-3-3-3--3---3--3--3--3--3-3--333-|

e|----------------------------------------------------------------------|
B|----------------------------------------------------------------------|
G|----------------------------------------------------------------------|
D|----------------------------------------------------------------------| 
A|--77777777777777776666666666666666--3--3-3--3-3-3-3-3--3---3--3--3--3-|
D|--77777777777777776666666666666666--3--3-3--3-3-3-3-3--3---3--3--3--3-|

e|---------------------------------------------------------------------------|
B|---------------------------------------------------------------------------|
G|---------------------------------------------------------------------------|
D|---------------------------------------------------------------------------|
A|--7-6-5-4-RING OUT---------------------------------------------------------|
D|--7-6-5-4-RING OUT---------------------------------------------------------|

e|---------------------------------------------------------------------------|
B|---------------------------------------------------------------------------|
G|---------------------------------------------------------------------------|
D|---------------------------------------------------------------------------| X REPEAT TILL
A|--3-3---3-3---3-3---7-6-5-4------------------------------------------------|   ALL DEAD
D|--3-3---3-3---3-3---7-6-5-4------------------------------------------------|

e|---------------------------------------------------------------------------|
B|---------------------------------------------------------------------------|
G|---------------------------------------------------------------------------|
D|---------------------------------------------------------------------------|
A|--4--RING OUT.-------------------------------------------------------------|
E|--4------------------------------------------------------------------------|

On the EP the hidden song is an extra song in itself. Maybe I'll tab it. Maybe not.

Добавлено: 21.09.2015
Другие материалы по этой песне:
  • Аккорды и текст

Страница создана 21.09.2015
http://primanota.ru/frank-carter-rattlesnakes/primary-explosive-chords.htm
Привет, Гость.
Предлагаем пройти революционный курс по гитаре.
Подарок от PrimaNota.Ru, забирай!