PrimaNota.ru - самый крупный в мире бесплатный архив песенных текстов, аккордов, табулатур и нот


Frank Carter The Rattlesnakes - Paradise - таба, видео

Регистрация Запомнить меня
Войти через:  Facebook Google Twitter Vk Yandex Mail.ru

Frank Carter The Rattlesnakes - Paradise - таба, видео

Печатать
Просмотров: 124
Уроки эстрадного вокала в Санкт-Петербурге
-------------------------------------------------------------------------------
                 Paradise - Frank Carter And The Rattlesnakes
-------------------------------------------------------------------------------
Tabbed by: Aaron Calles

Tuning:Drop D

Pretty nice track from Frank Carter's debut album with his new band "Frank Carter & The Rattlesnakes" 
titled "Blossom". Is really easy to play but you have to look closely for time and pace, even tho the tune
is catchy enough for you to not forget rhythms patterns. Enjoy!

Intro

e|----------------------------|      e|----------------------------|
B|----------------------------|      B|----------------------------|
G|----------------------------|      G|----------------------------|
D|----------------------------| x 3  D|----------------------------|
A|----4h66-6------------------|      A|----6-66-66-66-66-----------|
D|-1--------7-777-66----------|      D|----------------------------|

Verse

e|----------------------------|      e|----------------------------|
B|----------------------------|      B|----------------------------|
G|----------------------------|      G|----------------------------|
D|-----6-88-8-----------------| x 3  D|----8-88-88-88-88-----------|
A|-1---4-66-6-777-66----------|      A|----6-66-66-66-66-----------|
D|-1--------7-777-66----------|      D|----------------------------|

Chorus

e|---------------------------------------------------------------------------|
B|---------------------------------------------------------------------------|
G|---------------------------------------------------------------------------|
D|---8888888888888888--------------------------------------------------------| x2
A|---666666666666666699999999999999996666666666666666---1--1--1--1--1--1-----|
D|-------------------99999999999999996666666666666666---1--1--1--1--1--1-----|

Intro x1

Verse

Chorus

End chorus with 2 extra rounds of:

e|------------------------|
B|------------------------|
G|------------------------|
D|------------------------|
A|---1--1--1--1--1--1-----|
D|---1--1--1--1--1--1-----|

Bridge

e|---------------------------------------------------------------------------|
B|---------------------------------------------------------------------------|
G|---------------------------------------------------------------------------|
D|---------------------------------------------------------------------------|  x4
A|---4h66666666--------------------------------------------------------------|
D|-------------777777776666666611111111-(1's, not 11's)----------------------|
P.M.   |------------------------------|

e|---------------------------------------------------------------------------|
B|---------------------------------------------------------------------------|
G|---------------------------------------------------------------------------|
D|---8-8-8-8-8-8-8-8---------------------------------------------------------|  x4
A|---6-6-6-6-6-6-6-6-7-7-7-7-7-7-7-7-6-6-6-6-6-6-6-6-1-1-1-1-1-1-1-1---------|
D|-------------------7-7-7-7-7-7-7-7-6-6-6-6-6-6-6-6-1-1-1-1-1-1-1-1---------|

e|------------------------|
B|------------------------|
G|------------------------|
D|------------------------|
A|---1~-------------------|
D|---1~-------------------|



************************************

| /    slide up
| \    slide down
| h    hammer-on
| p    pull-off
| ~    vibrato
| +    harmonic
| x    Mute note
| b    Bend
| pb   Pre-bend
| br   Bend release
| pbr  Pre-bend release
| brb  Bend release bend
| P.M. Palm Mute

************************************
Добавлено: 03.05.2016
Вам также может быть интересно:
Другие материалы по этой песне:
  • Аккорды и текст

Страница создана 03.05.2016
http://primanota.ru/frank-carter-rattlesnakes/paradise-chords.htm
Привет, Гость.
Предлагаем пройти революционный курс по гитаре.
Подарок от PrimaNota.Ru, забирай!