PrimaNota.ru - самый крупный в мире бесплатный архив песенных текстов, аккордов, табулатур и нот


Frank Carter The Rattlesnakes - I Hate You - таба, видео

Регистрация Запомнить меня
Войти через:  Facebook Google Twitter Vk Yandex Mail.ru

Frank Carter The Rattlesnakes - I Hate You - таба, видео

Печатать
Просмотров: 282
Уроки эстрадного вокала в Санкт-Петербурге
Artist: Frank Carter & The Rattlesnakes
Song: I Hate You

x/x   = slide
(x)   = palm muted note
x/    = bend

Intro:
e|----------------------|
B|----------------------|
G|----------------------|
D|-------7-----7--------|
A|--7/9-----7----9------|
E|-----------------7----|


Riff One:
e|-----------------------------------|
B|--------------------------------4--|
G|--------2----------2------------2--|
D|--------------------------------4--|
A|------------------------0/2--2--2--|
E|---2--------2-0--------------------|


Riff Two:
e|-------------------------------------------------------------|
B|----------------------------4/6-6-6-6-6-6-6-6-6-6-6-6-6-6-6--|
G|--------2----------2--------2/4-4-4-4-4-4-4-4-4-4-4-4-4-4-4--|
D|----------------------------4/6-6-6-6-6-6-6-6-6-6-6-6-6-6-6--|
A|------------------------0/2-2/4-4-4-4-4-4-4-4-4-4-4-4-4-4-4--|
E|---2--------2-0----------------------------------------------|


Riff Three:
e|----------------------------------|
B|-------------------------------4--|
G|-------(2)--(2)----(2)---------2--|
D|-------------------------------4--|
A|------------------------0/2----2--|
E|--(2)---------(0)-----------------|


Riff Four
e|----------------------------------------|
B|----------------------------------------|
G|----------------------------------------|
D|------------------------------------7/--|
A|----------------------------------------|
E|---2--------2-2p0------0-0/7-----7------|


Riff Five
e|------------------------------------------------------------------|
B|------------------------------------------------------------------|
G|-------------------------------------6-6-6-6-6-6-6-6-6-6-6-6-6-6--|
D|-------------------------------------7-7-7-7-7-7-7-7-7-7-7-7-7-7--|
A|-----------------------------------9-9-9-9-9-9-9-9-9-9-9-9-9-9-9--|
E|---2--------2-2p0------0-0/7-----7-7-7-7-7-7-7-7-7-7-7-7-7-7-7-7--|


Riff Six
e|-----------------------------------------|
B|-----------------------------------------|
G|--------2----------2---------2---2/4-----|
D|------------------------------------4-4--|
A|------------------------0/2--------------|
E|---2--------2-0----------------------2---|


Riff Seven
e|--------------------------------|
B|--------------------------------|
G|--------2----------2----2----2--|
D|------------------------4-------|
A|------------------------2-------|
E|---2--------2-0-----------------|


Riff Eight
e|---------------------------|
B|---------------------------|
G|--------2----------2----2--|
D|------------------------4--|
A|------------------------2--|
E|---2--------2-0------------|


Riff Nine
e|----------------------------------|
B|----------------------------------|
G|--------4----2--------2--------2--|
D|---------------4p2------4p2-------|
A|-------------------4--------4-----|
E|---2------------------------------|


Riff Ten
e|----------------------------------------2p0---0------------------------|
B|----------------2----------------2---4------2----2---------------------|
G|----------------2----------------2---2---------------5-4-2-4--2/-------|
D|-------------------------------------4---------------------------4--2--|
A|------2/4--------------2/4-----------2---------------------------------|
E|--0/2-----0-0/2----0/2-----0-0/2---------------------------------------|


Riff Eleven
e|------------------------------------------0-2---2/5--4---0-2--0------------------|
B|----------------2----------------2---4--2-----2-----------------2----------------|
G|----------------2----------------2---2-----------------------------5-4--2-4--2/--|
D|-------------------------------------4-------------------------------------------|
A|------2/4--------------2/4-----------2-------------------------------------------|
E|--0/2-----0-0/2----0/2-----0-0/2-------------------------------------------------|


Riff Twelve
e|----------------------------2----12--9-------------9-----|
B|------------------------4---------------12--10-----------|
G|--------2----------2----2----------------------11--------|
D|------------------------4----------------------------11--|
A|------------------------2--------------------------------|
E|---2--------2-0-0----------------------------------------|


Riff Thirteen
e|----------------------------0-2-0-2-0-2-0-2-0-2-0-2--2-2-0-------------------|
B|------------------------4----------------------------------2-2---------------|
G|--------2----------2----2--------------------------------------5-4--2-4--2/--|
D|------------------------4----------------------------------------------------|
A|------------------------2----------------------------------------------------|
E|---2--------2-0-0------------------------------------------------------------|


Song:

Intro (x2)

You are nothing, you are nothing to me...
Riff One (x3)
Riff Two (x1)

Yeah I hate you and I wish you would die...
Riff Three (x4)

I wanna hit you with the force of an asteroid from space...
Riff One (x3)
Riff Two (x1)

Oh I hate you and I wish you would die...
Riff Three (x4)

...I hate you and I wish you would die...
Riff Four (x3)
Riff Five (x1)

I fucking hate you and I wish you would die...
Riff Six (x1)
Riff Seven (x1)
Riff Eight (x1)
Riff Two (x1)

Solo:
Riff Nine (x2)
Riff One (x1)
Riff Two (x1)
Riff Ten (x1)
Riff Eleven (x1)
Riff Twelve (x1)
Riff Thirteen (x1)

Ending:
Riff Three (x4)
Добавлено: 03.05.2016
Другие материалы по этой песне:
  • Аккорды и текст

Страница создана 03.05.2016
http://primanota.ru/frank-carter-rattlesnakes/i-hate-you-chords.htm
Привет, Гость.
Предлагаем пройти революционный курс по гитаре.
Подарок от PrimaNota.Ru, забирай!