PrimaNota.ru - самый крупный в мире бесплатный архив песенных текстов, аккордов, табулатур и нот


Frank Carter The Rattlesnakes - Fangs - таба, видео

Регистрация Запомнить меня
Войти через:  Facebook Google Twitter Vk Yandex Mail.ru

Frank Carter The Rattlesnakes - Fangs - таба, видео

Печатать
Просмотров: 106
-------------------------------------------------------------------------------
                             Fangs - Frank Carter & The Rattlesnakes
-------------------------------------------------------------------------------
Tabbed by: SAM MOON

Find the patterns yourself but this is the basics of the song pretty much.
Such a great band. Enjoy!

Tuning:

e|---------------------------------------------------------------------------|
B|---------------------------------------------------------------------------|
G|---------------------------------------------------------------------------|
D|------------------------------------------X2-------------------------------|
A|-1------------------4------------------------------------------------------|
D|---4-3-33333333-------7-6--66666666----------------------------------------|

e|---------------------------------------------------------------------------|
B|---------------------------------------------------------------------------|
G|---------------------------------------------------------------------------|
D|------------------------------------------X2-------------------------------|
A|--1----333333333----4----66666666666---------------------------------------|
D|----4--333333333------7--66666666666---------------------------------------|

e|---------------------------------------------------------------------------|
B|---------------------------------------------------------------------------|
G|---------------------------------------------------------------------------| Mess about with (1)s
D|---------------------------------------------------------------------------| 
A|--1----333(1)3333333----99999998888888-----333(1)3333333-STOP--------------|
D|----4--333(1)3333333----99999998888888-----333(1)3333333-------------------|

e|-----------|------------------------------|
B|-----------|------------------------------|
G|-----------|---0h3h0---0h3h0---0h3h0------|
D|-----------|------------------------------| X3
A|-----------|-3-------3-------3-------3--1-|
D|---7-4-3---|-3-------3-------3-------3--1-|

e|-------------------------|--------------------------------------------------|
B|-------------------------|--------------------------------------------------|
G|---0h3h0---0h3h0---0h3h0-|--------------------------------------------------|
D|-------------------------|--------------------------------------------------| X2
A|-3-------3-------3-------|-11111111111-44444444444-99999999-9-9-99988888888-|
D|-3-------3-------3-------|-11111111111-44444444444-99999999-9-9-99988888888-|

e|---------------------------------------------------------------------------|
B|---------------------------------------------------------------------------|
G|---------------------------------------------------------------------------|
D|------------------------------------------X2-------------------------------|
A|--1----333333333----4----66666666666---------------------------------------|
D|----4--333333333------7--66666666666---------------------------------------|

e|---------------------------------------------------------------------------|
B|---------------------------------------------------------------------------|
G|---------------------------------------------------------------------------|
D|---------------------------------------------------------------------------|
A|--1----333(1)3333333----99999998888888-----333(1)3333333-STOP--------------|
D|----4--333(1)3333333----99999998888888-----333(1)3333333-------------------|


e|---------------------------------------------------------------------------|
B|---------------------------------------------------------------------------|
G|---------------------------------------------------------------------------|
D|---------------------------------------------------------------------------| X 10 Start adding same notes
A|---3--3--3--3---9--9--9988--8----------------------------------------------|
D|---3--3--3--3---9--9--9988--8----------------------------------------------|

e|-----------|------------------------------|
B|-----------|------------------------------|
G|-----------|---0h3h0---0h3h0---0h3h0------|
D|-----------|------------------------------| X4
A|-----------|-3-------3-------3-------3--1-|
D|---7-4-3---|-3-------3-------3-------3--1-|

e|----------------------------------------------------------------|
B|----------------------------------------------------------------|
G|----------------------------------------------------------------|
D|----------------------------------------------------------------|
A|--3333333----99999998888888-----333(1)3333333-STOP--------------|
D|--3333333----99999998888888-----333(1)3333333-------------------|


Добавлено: 21.09.2015
Другие материалы по этой песне:
  • Аккорды и текст

Страница создана 21.09.2015
http://primanota.ru/frank-carter-rattlesnakes/fangs-chords.htm
Привет, Гость.
Предлагаем пройти революционный курс по гитаре.
Подарок от PrimaNota.Ru, забирай!