PrimaNota.ru - самый крупный в мире бесплатный архив песенных текстов, аккордов, табулатур и нот


Franco - Uprising - таба, видео

Регистрация Запомнить меня
Войти через:  Facebook Google Twitter Vk Yandex Mail.ru

Franco - Uprising - таба, видео

Печатать
Просмотров: 57
Uprising from Franco's "Soul Adventurer"

Intro 1 (dist.)
Guitar 1 8x
----------------------------|
----------------------------|
------4-4---4-4---4-4----4--|
----------------------------|
-4~-4~---4-4---4-4---4-4----|
----------------------------|

Guitar 2 comes in at 0:14. play it 4x
----------------------------|
----------------------------|
--------------------------4-|
----------------------------|
-4--4--2/4-4--2/4-4--2/4-4--|
----------------------------|

Intro 2 0:28
Guitar 1 (Rhythm)
--------------------------------------------------|
--------------------------------------------------|
----4-4---4-4---4-4---4----4-4----4-----4-4----4--|
--------------------------------------------------|
-4-4---4-4---4-4---4-4-0--0----0-0--2--2----2-2---|
--------------------------------------------------|

Guitar 2 (Lead)
--------------------------------------------------|
--------------------------------------------------|
--------------------------------------------------|
-----4--6~------6b7b6-----4--6~---------2---------|
-4~-4-----------------0--0----------2-4--4~-------|
--------------------------------------------------|

Verse 1 0:41
Guitar 1 4x (clean)
----------------------------------------------------------------|
----------------------------------------------------------------|
-4-4-4-4-4-4-4-4-4-4-4-4-4-4-4-4--4-4--4-4-4-4-4--4-4--4-4-4-4--|
-2-2-2-2-2-2-2-2-2-2-2-2-2-2-2-2--2-2--2-2-2-2-2--2-2--2-2-2-2--|
-4-4-4-4-4-4-4-4-4-4-4-4-4-4-4-0--0-0--0-0-0-0-2--2-2--2-2-2-2--|
----------------------------------------------------------------|
 . .   . . .   . . .   . . .   .  .    . . .   .  .    . . . .

Guitar 2 0:55 2x (little distortion)
----------------------------------------------------------|
----------------------------------------------------------|
------4~---------------------------4~-----------------1~--|
---2----------------------------2---------------2---------|
-4---4------------------------0---0-----------2---2~------|
----------------------------------------------------------|

Pre-chorus 1:09 2x (heavy distortion)
Guitar 1
-----------------------------------------------------------|
-----------------------------------------------------------|
-----------------------------------------------------------|
-4-4-4-4-4-4-4-4-4-4-4-4-4-4-4-7--7-7-7-7-7-7-7-7-7-7-7-7--|
-4-4-4-4-4-4-4-4-4-4-4-4-4-4-4-7--7-7-7-7-7-7-7-7-7-7-7-7--|
-4-4-4-4-4-4-4-4-4-4-4-4-4-4-4-7--7-7-7-7-7-7-7-7-7-7-7-7--|

Guitar 2
-----------------------------------------------------------|
-----------------------------------------------------------|
-------------9-9-8-8---------------------------------------|
---------------------9-9-6-7-9-7~--------------------------|
-----------------------------------------------------------|
-----------------------------------------------------------|

Chorus 1:22 distorted. play 4x
-----------------------------------|
-----------------------------------|
-----------------------------------|
-2--------4--------------0---------|
-2--------4--------------0---------|
-2--------4--------------0---------|

Intro 2 again.

Verse same except the 2nd guitar plays this twice
------------------------------------------|
------------------------------------------|
-4~---------------------------------------|
-2~----------------------------------2----|
-4~-------------------------------2-4-4~--|
------------------------------------------|
 then the riff from the previous verse twice.

Prechorus again 2:31
Chorus again 2:45

Bridge 1 3:14. play it 8x
----------------------------|
----------------------------|
----------------------------|
-2-2--2-2--2-0--0-0--0-2-0--|
-2-2--2-2--2-0--0-0--0-2-0--|
-2-2--2-2--2-0--0-0--0-2-0--|

play this
-------------------------------------|
-------------------------------------|
-------------------------------------|
-4-------------------------0---------|
-4-------------------------0---------|
-4-------------------------0---------|
   to become as one.......non-violent

Chorus again 3:52, but play it 6x

Bridge again 4:37,16x

end it with
------------------------|
------------------------|
------------------------|
-2-2--2-2--2-0~---------|
-2-2--2-2--2-0~---------|
-2-2--2-2--2-0~---------|

and you're done.

Rastafari
Добавлено: 19.09.2013
Другие материалы по этой песне:
  • Аккорды и текст

Страница создана 19.09.2013
http://primanota.ru/franco/uprising-chords.htm
Привет, Гость.
Предлагаем пройти революционный курс по гитаре.
Подарок от PrimaNota.Ru, забирай!