PrimaNota.ru - самый крупный в мире бесплатный архив песенных текстов, аккордов, табулатур и нот


Franco - Seasons - таба, видео

Регистрация Запомнить меня
Войти через:  Facebook Google Twitter Vk Yandex Mail.ru

Franco - Seasons - таба, видео

Печатать
Просмотров: 140
PLS LIKE OUR BAND FAN PAGE @ FACEBOOK -Arista(lucena) http://www.facebook.com/
pages/Arista-Lucena/226729694026830

Tuning Drop D(kakatamad mag C# eh)

FB-http://www.facebook.com/profile.php?id=1353443910
09283150081

Tuning - DROP D(tinamad ako mag C#) hehe ..pwede na 

Intro-

GtrI
|------------------------------------------------------------5~-----|
|------------------------------------------------------------6~-----|
|------------------------------------------------------------7~-----|
|-----------------------------------------------3x-----------5~-----|
|----------------3--3-3--5--5-5------------------------------5~-----|
|-1--1-1--3--3-3----------------5~-------5p3p0---------------5~-----|
GtrII
|--------------------------------------5---------------------5~-----|
|----------------6-----------------------6~------------------6~-----|
|-------------7-----7~---------------7-----------------------7~-----|
|----------5-----------------------5-------------------------5~-----|
|-------------------------------------------------------------------|
|-------------------------------------------------------------------|

then
|----------------------------------------------------|
|----------------------------------------------------|
|-----------------------------------------888--------|
|-----3-3--5-5--6-6--8-8---3-3--5-5--6-6-------------|
|-xx--3-3--5-5--6-6--8-8---3-3--5-5--6-6--666--------|
|-xx--3-3--5-5--6-6--8-8---3-3--5-5--6-6-------------|

|----------------------------------------------------|
|----------------------------------------------------|
|-----------------------------------------888--------|
|---3-3--5-5--6-6--8-6-5--3-3-3--5-5--6-6------------|
|---3-3--5-5--6-6--8-6-5--3-3-3--5-5--6-6-666--------|
|---3-3--5-5--6-6--8-6-5--3-3-3--5-5--6-6------------|

Verse
|-------------------------------------------------------------------|
|-------------------------------------------------------------------|
|---------------------------------3-3-3-3-3-3-3-3-3-3-3-3-3-3-3-3---|
|-6~---------------6--------------1-1-1-1-1-1-1-1-1-1-1-1-1-1-1-1---|
|-6~-6666666666666-66666666666666-1-1-1-1-1-1-1-1-1-1-1-1-1-1-1-1---|
|-6--6666666666666-66666666666666-1-1-1-1-1-1-1-1-1-1-1-1-1-1-1-1---|
     *************  *************
|-------------------------------------------------------------------|
|-------------------------------------------------------------------|
|-------------------------------------------------------------------|
|-6-------------------------------3----------------3----------------|
|-6--6-6-6-6-6-6-6-6-6-6-6-6-6-6--3--3-3-3-3-3-3-3-3----------------|
|-6--6-6-6-6-6-6-6-6-6-6-6-6-6-6--3--3-3-3-3-3-3-3-3----------------|
     * * * * * * * * * * * * * *      
Chorus-
|-------------------------------------------------------------------|
|-------------------------------------------------------------------|
|------------------7-7-7-7-7-7-7-7------------------7-7-7-7-7-7-7-7-|
|-1-1-1-1-1-1-1-1--5-5-5-5-5-5-5-5-1-1-1-1-1-1-1-1--5-5-5-5-5-5-5-5-|
|-1-1-1-1-1-1-1-1--5-5-5-5-5-5-5-5-1-1-1-1-1-1-1-1--5-5-5-5-5-5-5-5-|
|-1-1-1-1-1-1-1-1--5-5-5-5-5-5-5-5-1-1-1-1-1-1-1-1--5-5-5-5-5-5-5-5-|

then
|-------------------------------------------------------------------|
|-------------------------------------------------------------------|
|-------------------------------------------------------------------|
|-1-1-3p1-3/5p3-1--1-3-1-3/5---1-1-3p1-3/5p3-1--1-3-1-3/5p3---------|
|-1-1-3p1-3/5p3-1--1-3-1-3/5---1-1-3p1-3/5p3-1--1-3-1-3/5p3---------|3x
|-1-1-3p1-3/5p3-1--1-3-1-3/5---1-1-3p1-3/5p3-1--1-3-1-3/5p3---------|

Verse-
GtrI
|-------------------------------------------------------------------|
|-------------------------------------------------------------------|
|-------------------------------------------------------------------|
|-6~---------------3--------------1-1-1-1-1-1-1-1-1-1-1-1-1-1-1-1---|
|-6~-6666666666666-33333333333333-1-1-1-1-1-1-1-1-1-1-1-1-1-1-1-1---|
|-6--6666666666666-33333333333333-1-1-1-1-1-1-1-1-1-1-1-1-1-1-1-1---|
     *************  *************
|-------------------------------------------------------------------|
|-------------------------------------------------------------------|
|-------------------------------------------------------------------|
|-6------------------------------------------------3----------------|
|-6--6-6-6-6-6-6-6-6-6-6-6-6-6-6--3--3-3-3-3-3-3-3-3----------------|
|-6--6-6-6-6-6-6-6-6-6-6-6-6-6-6--3--3-3-3-3-3-3-3-3----------------|
     * * * * * * * * * * * * * *      


GtrI
|-------------------------------------------------------------------|
|-------------------------------------3-4--3-4---3-4--3-4--3-4------|
|-----------------------------------3-----3-----3----3----3---------|
|-6~----------------------------------------------------------------|
|-6~-6666666666666-33333333333333-----------------------------------|
|-6--6666666666666-33333333333333-----------------------------------|
     ************* **************



|-------------------------------------------------------------------|
|-3--4---34---34--34--34----6~--4-3~--------------------------------|
|---3---3---3---3----3----------------------------------------------|
|--------------------------------------------------------3----------|
|-------------------------------------3--3-3-3-3-3-3-3-3-3----------|
|-------------------------------------3--3-3-3-3-3-3-3-3-3----------|
          

Chorus-
|-----------------------------------|
|-----------------------------------|
|-----------------------------------|3x
|-1-1-1-1-1-1-1-1--5-5-5-5-5-5-5-5--|
|-1-1-1-1-1-1-1-1--5-5-5-5-5-5-5-5--|
|-1-1-1-1-1-1-1-1--5-5-5-5-5-5-5-5--|

|-----------------------------------------------------------------------|
|-----------------------------------------------------------------------|
|-----------------------------------------------------------------------|
|-3-3-3-3-3-3-3-3-3-6-6-6-6-6-6-6-6-6-6-6-6-6-6-6-6-6-1-1-1-1-1-1-1-1-1-|
|-3-3-3-3-3-3-3-3-3-6-6-6-6-6-6-6-6-6-6-6-6-6-6-6-6-6-1-1-1-1-1-1-1-1-1-|
|-3-3-3-3-3-3-3-3-3-6-6-6-6-6-6-6-6-6-6-6-6-6-6-6-6-6-1-1-1-1-1-1-1-1-1-|

|---------------------------------------------|
|---------------------------------------------|
|-------777-------888-------777-10101010-8-7--|
|-33333-----33333-----33333-------------------|
|-33333-555-33333-666-33333-555-8-8-8-8--6-5--|
|-33333-----33333-----33333-------------------|


|-------------------------------------------------------------------|
|-------------------------------------------------------------------|
|-------------------------------------------------------------------|
|--6666666666-10101010101010101010--333333333333-66666666666--------|
|--6666666666-10101010101010101010--333333333333-66666666666--------|
|--6666666666-10101010101010101010--333333333333-66666666666--------|

Interlude-

GtrI 2x
|-------------------------------------------------------------------|
|-------------------------------------------------------------------|
|-----------------------------------------7-888888------------------|
|--3-1/3-5/6--3-1/3-5/6---3-1/3-5/6---3-1---------------------------|
|--3-1/3-5/6--3-1/3-5/6---3-1/3-5/6---3-1-5-666666------------------|
|--3-1/3-5/6--3-1/3-5/6---3-1/3-5/6---3-1---------------------------|

|-------------------------------------------------------------------|
|-------------------------------------------------------------------|
|-----------------------------------------5-333333------------------|
|--3-1/3-5/6--3-1/3-5/6---3-1/3-5/6---3-1---------------------------|
|--3-1/3-5/6--3-1/3-5/6---3-1/3-5/6---3-1-3-111111------------------|
|--3-1/3-5/6--3-1/3-5/6---3-1/3-5/6---3-1---------------------------|

GtrII
|-------------------------------------------------------------------|
|-------------------------------------------------------------------|
|------8------------------------8--------7-888888-------------------|
|--5h6---6-5-6-5--3h5p3-----5h6---6-5-------------------------------|
|-----------------------6----------------5-666666-------------------|
|-------------------------------------------------------------------|

|-------------------------------------------------------------------|
|-------------------------------------------------------------------|
|------8------------------------8--------5-333333-------------------|
|--5h6---6-5-6-5--3h5p3-----5h6---6-5-------------------------------|
|-----------------------6----------------3-111111-------------------|
|-------------------------------------------------------------------|

Bridge-

|-------------------------------------------------------------------|
|-------------------------------------------------------------------|
|--3-3-3-3-3-3-3-3--------------------------------------------------|
|--3-3-3-3-3-3-3-3-5-5-5-5-5-5-5-5-6-6-6-6-6-6-6-6-5-5-5-5-5-5-5-5--|
|--3-3-3-3-3-3-3-3-5-5-5-5-5-5-5-5-6-6-6-6-6-6-6-6-5-5-5-5-5-5-5-5--|
|--3-3-3-3-3-3-3-3-5-5-5-5-5-5-5-5-6-6-6-6-6-6-6-6-5-5-5-5-5-5-5-5--|


|-------------------------------------------------------------------|
|-------------------------------------------------------------------|
|-------------------------------------------------------------------|
|-3-3-3-3-3-3-3-3-5-5-5-5-5-5-5-5-6-6-6-6-6-6-6-6-6-6-6-6-6-6-6-6-6-|
|-3-3-3-3-3-3-3-3-5-5-5-5-5-5-5-5-6-6-6-6-6-6-6-6-6-6-6-6-6-6-6-6-6-|
|-3-3-3-3-3-3-3-3-5-5-5-5-5-5-5-5-6-6-6-6-6-6-6-6-6-6-6-6-6-6-6-6-6-|

Chorus-
|----------------------------------|
|----------------------------------|
|----------------------------------|
|-1-1-1-1-1-1-1-1--5-5-5-5-5-5-5-5-|3x
|-1-1-1-1-1-1-1-1--5-5-5-5-5-5-5-5-|
|-1-1-1-1-1-1-1-1--5-5-5-5-5-5-5-5-|

|-------------------------------------|
|-------------------------------------|
|-------------------------------------|
|-3-3-3-3-3-3-3-3-3-6-6-6-6-6-6-6-6-6-|
|-3-3-3-3-3-3-3-3-3-6-6-6-6-6-6-6-6-6-|
|-3-3-3-3-3-3-3-3-3-6-6-6-6-6-6-6-6-6-|

Outro-
GtrI 
|-------------------------------------------------------------------|
|-------------------------------------------------------------------|
|-----------------------------------------7-888888------------------|
|--3-1/3-5/6--3-1/3-5/6---3-1/3-5/6---3-1---------------------------|
|--3-1/3-5/6--3-1/3-5/6---3-1/3-5/6---3-1-5-666666------------------|
|--3-1/3-5/6--3-1/3-5/6---3-1/3-5/6---3-1---------------------------|

|-------------------------------------------------------------------|
|-------------------------------------------------------------------|
|-----------------------------------------5-333333------------------|
|--3-1/3-5/6--3-1/3-5/6---3-1/3-5/6---3-1---------------------------|
|--3-1/3-5/6--3-1/3-5/6---3-1/3-5/6---3-1-3-111111------------------|
|--3-1/3-5/6--3-1/3-5/6---3-1/3-5/6---3-1---------------------------|

|-------------------------------------------------------------------|
|-------------------------------------------------------------------|
|-----------------------------------------7-888888------------------|
|--3-1/3-5/6--3-1/3-5/6---3-1/3-5/6---3-1---------------------------|
|--3-1/3-5/6--3-1/3-5/6---3-1/3-5/6---3-1-5-666666------------------|
|--3-1/3-5/6--3-1/3-5/6---3-1/3-5/6---3-1---------------------------|

|-------------------------------------------------------------------|
|-------------------------------------------------------------------|
|-------------------------------------------------------------------|
|--3-1/3-5/6--3-1/3-5/6---3-1/3-5/6---3------------1~---------------|
|--3-1/3-5/6--3-1/3-5/6---3-1/3-5/6---3------------1~---------------|
|--3-1/3-5/6--3-1/3-5/6---3-1/3-5/6---3------------1~---------------|

GtrII
|-------------------------------------------------------------------|
|-------------------------------------------------------------------|
|------8------------------------8--------7-888888-------------------|
|--5h6---6-5-6-5--3h5p3-----5h6---6-5-------------------------------|
|-----------------------6----------------5-666666-------------------|
|-------------------------------------------------------------------|

|-------------------------------------------------------------------|
|-------------------------------------------------------------------|
|------8------------------------8--------5-333333-------------------|
|--5h6---6-5-6-5--3h5p3-----5h6---6-5-------------------------------|
|-----------------------6----------------3-111111-------------------|

Tuning Drop D(kakatamad mag C# eh)


Intro-
GtrI
|------------------------------------------------------------5~-----|
|------------------------------------------------------------6~-----|
|------------------------------------------------------------7~-----|
|-----------------------------------------------3x-----------5~-----|
|----------------3--3-3--5--5-5------------------------------5~-----|
|-1--1-1--3--3-3----------------5~-------5p3p0---------------5~-----|
GtrII
|--------------------------------------5---------------------5~-----|
|----------------6-----------------------6~------------------6~-----|
|-------------7-----7~---------------7-----------------------7~-----|
|----------5-----------------------5-------------------------5~-----|
|-------------------------------------------------------------------|
|-------------------------------------------------------------------|

then
|----------------------------------------------------|
|----------------------------------------------------|
|-----------------------------------------888--------|
|-----3-3--5-5--6-6--8-8---3-3--5-5--6-6-------------|
|-xx--3-3--5-5--6-6--8-8---3-3--5-5--6-6--666--------|
|-xx--3-3--5-5--6-6--8-8---3-3--5-5--6-6-------------|

|----------------------------------------------------|
|----------------------------------------------------|
|-----------------------------------------888--------|
|---3-3--5-5--6-6--8-6-5--3-3-3--5-5--6-6------------|
|---3-3--5-5--6-6--8-6-5--3-3-3--5-5--6-6-666--------|
|---3-3--5-5--6-6--8-6-5--3-3-3--5-5--6-6------------|

Verse
|-------------------------------------------------------------------|
|-------------------------------------------------------------------|
|---------------------------------3-3-3-3-3-3-3-3-3-3-3-3-3-3-3-3---|
|-6~---------------6--------------1-1-1-1-1-1-1-1-1-1-1-1-1-1-1-1---|
|-6~-6666666666666-66666666666666-1-1-1-1-1-1-1-1-1-1-1-1-1-1-1-1---|
|-6--6666666666666-66666666666666-1-1-1-1-1-1-1-1-1-1-1-1-1-1-1-1---|
     *************  *************
|-------------------------------------------------------------------|
|-------------------------------------------------------------------|
|-------------------------------------------------------------------|
|-6-------------------------------3----------------3----------------|
|-6--6-6-6-6-6-6-6-6-6-6-6-6-6-6--3--3-3-3-3-3-3-3-3----------------|
|-6--6-6-6-6-6-6-6-6-6-6-6-6-6-6--3--3-3-3-3-3-3-3-3----------------|
     * * * * * * * * * * * * * *      
Chorus-
|-------------------------------------------------------------------|
|-------------------------------------------------------------------|
|------------------7-7-7-7-7-7-7-7------------------7-7-7-7-7-7-7-7-|
|-1-1-1-1-1-1-1-1--5-5-5-5-5-5-5-5-1-1-1-1-1-1-1-1--5-5-5-5-5-5-5-5-|
|-1-1-1-1-1-1-1-1--5-5-5-5-5-5-5-5-1-1-1-1-1-1-1-1--5-5-5-5-5-5-5-5-|
|-1-1-1-1-1-1-1-1--5-5-5-5-5-5-5-5-1-1-1-1-1-1-1-1--5-5-5-5-5-5-5-5-|

then
|-------------------------------------------------------------------|
|-------------------------------------------------------------------|
|-------------------------------------------------------------------|
|-1-1-3p1-3/5p3-1--1-3-1-3/5---1-1-3p1-3/5p3-1--1-3-1-3/5p3---------|
|-1-1-3p1-3/5p3-1--1-3-1-3/5---1-1-3p1-3/5p3-1--1-3-1-3/5p3---------|3x
|-1-1-3p1-3/5p3-1--1-3-1-3/5---1-1-3p1-3/5p3-1--1-3-1-3/5p3---------|

Verse-
GtrI
|-------------------------------------------------------------------|
|-------------------------------------------------------------------|
|-------------------------------------------------------------------|
|-6~---------------3--------------1-1-1-1-1-1-1-1-1-1-1-1-1-1-1-1---|
|-6~-6666666666666-33333333333333-1-1-1-1-1-1-1-1-1-1-1-1-1-1-1-1---|
|-6--6666666666666-33333333333333-1-1-1-1-1-1-1-1-1-1-1-1-1-1-1-1---|
     *************  *************
|-------------------------------------------------------------------|
|-------------------------------------------------------------------|
|-------------------------------------------------------------------|
|-6------------------------------------------------3----------------|
|-6--6-6-6-6-6-6-6-6-6-6-6-6-6-6--3--3-3-3-3-3-3-3-3----------------|
|-6--6-6-6-6-6-6-6-6-6-6-6-6-6-6--3--3-3-3-3-3-3-3-3----------------|
     * * * * * * * * * * * * * *      


GtrI
|-------------------------------------------------------------------|
|-------------------------------------3-4--3-4---3-4--3-4--3-4------|
|-----------------------------------3-----3-----3----3----3---------|
|-6~----------------------------------------------------------------|
|-6~-6666666666666-33333333333333-----------------------------------|
|-6--6666666666666-33333333333333-----------------------------------|
     ************* **************



|-------------------------------------------------------------------|
|-3--4---34---34--34--34----6~--4-3~--------------------------------|
|---3---3---3---3----3----------------------------------------------|
|--------------------------------------------------------3----------|
|-------------------------------------3--3-3-3-3-3-3-3-3-3----------|
|-------------------------------------3--3-3-3-3-3-3-3-3-3----------|
          

Chorus-
|-----------------------------------|
|-----------------------------------|
|-----------------------------------|3x
|-1-1-1-1-1-1-1-1--5-5-5-5-5-5-5-5--|
|-1-1-1-1-1-1-1-1--5-5-5-5-5-5-5-5--|
|-1-1-1-1-1-1-1-1--5-5-5-5-5-5-5-5--|

|-----------------------------------------------------------------------|
|-----------------------------------------------------------------------|
|-----------------------------------------------------------------------|
|-3-3-3-3-3-3-3-3-3-6-6-6-6-6-6-6-6-6-6-6-6-6-6-6-6-6-1-1-1-1-1-1-1-1-1-|
|-3-3-3-3-3-3-3-3-3-6-6-6-6-6-6-6-6-6-6-6-6-6-6-6-6-6-1-1-1-1-1-1-1-1-1-|
|-3-3-3-3-3-3-3-3-3-6-6-6-6-6-6-6-6-6-6-6-6-6-6-6-6-6-1-1-1-1-1-1-1-1-1-|

|---------------------------------------------|
|---------------------------------------------|
|-------777-------888-------777-10101010-8-7--|
|-33333-----33333-----33333-------------------|
|-33333-555-33333-666-33333-555-8-8-8-8--6-5--|
|-33333-----33333-----33333-------------------|


|-------------------------------------------------------------------|
|-------------------------------------------------------------------|
|-------------------------------------------------------------------|
|--6666666666-10101010101010101010--333333333333-66666666666--------|
|--6666666666-10101010101010101010--333333333333-66666666666--------|
|--6666666666-10101010101010101010--333333333333-66666666666--------|

Interlude-

GtrI 2x
|-------------------------------------------------------------------|
|-------------------------------------------------------------------|
|-----------------------------------------7-888888------------------|
|--3-1/3-5/6--3-1/3-5/6---3-1/3-5/6---3-1---------------------------|
|--3-1/3-5/6--3-1/3-5/6---3-1/3-5/6---3-1-5-666666------------------|
|--3-1/3-5/6--3-1/3-5/6---3-1/3-5/6---3-1---------------------------|

|-------------------------------------------------------------------|
|-------------------------------------------------------------------|
|-----------------------------------------5-333333------------------|
|--3-1/3-5/6--3-1/3-5/6---3-1/3-5/6---3-1---------------------------|
|--3-1/3-5/6--3-1/3-5/6---3-1/3-5/6---3-1-3-111111------------------|
|--3-1/3-5/6--3-1/3-5/6---3-1/3-5/6---3-1---------------------------|

GtrII
|-------------------------------------------------------------------|
|-------------------------------------------------------------------|
|------8------------------------8--------7-888888-------------------|
|--5h6---6-5-6-5--3h5p3-----5h6---6-5-------------------------------|
|-----------------------6----------------5-666666-------------------|
|-------------------------------------------------------------------|

|-------------------------------------------------------------------|
|-------------------------------------------------------------------|
|------8------------------------8--------5-333333-------------------|
|--5h6---6-5-6-5--3h5p3-----5h6---6-5-------------------------------|
|-----------------------6----------------3-111111-------------------|
|-------------------------------------------------------------------|

Bridge-

|-------------------------------------------------------------------|
|-------------------------------------------------------------------|
|--3-3-3-3-3-3-3-3--------------------------------------------------|
|--3-3-3-3-3-3-3-3-5-5-5-5-5-5-5-5-6-6-6-6-6-6-6-6-5-5-5-5-5-5-5-5--|
|--3-3-3-3-3-3-3-3-5-5-5-5-5-5-5-5-6-6-6-6-6-6-6-6-5-5-5-5-5-5-5-5--|
|--3-3-3-3-3-3-3-3-5-5-5-5-5-5-5-5-6-6-6-6-6-6-6-6-5-5-5-5-5-5-5-5--|


|-------------------------------------------------------------------|
|-------------------------------------------------------------------|
|-------------------------------------------------------------------|
|-3-3-3-3-3-3-3-3-5-5-5-5-5-5-5-5-6-6-6-6-6-6-6-6-6-6-6-6-6-6-6-6-6-|
|-3-3-3-3-3-3-3-3-5-5-5-5-5-5-5-5-6-6-6-6-6-6-6-6-6-6-6-6-6-6-6-6-6-|
|-3-3-3-3-3-3-3-3-5-5-5-5-5-5-5-5-6-6-6-6-6-6-6-6-6-6-6-6-6-6-6-6-6-|

Chorus-
|----------------------------------|
|----------------------------------|
|----------------------------------|
|-1-1-1-1-1-1-1-1--5-5-5-5-5-5-5-5-|3x
|-1-1-1-1-1-1-1-1--5-5-5-5-5-5-5-5-|
|-1-1-1-1-1-1-1-1--5-5-5-5-5-5-5-5-|

|-------------------------------------|
|-------------------------------------|
|-------------------------------------|
|-3-3-3-3-3-3-3-3-3-6-6-6-6-6-6-6-6-6-|
|-3-3-3-3-3-3-3-3-3-6-6-6-6-6-6-6-6-6-|
|-3-3-3-3-3-3-3-3-3-6-6-6-6-6-6-6-6-6-|

Outro-
GtrI 
|-------------------------------------------------------------------|
|-------------------------------------------------------------------|
|-----------------------------------------7-888888------------------|
|--3-1/3-5/6--3-1/3-5/6---3-1/3-5/6---3-1---------------------------|
|--3-1/3-5/6--3-1/3-5/6---3-1/3-5/6---3-1-5-666666------------------|
|--3-1/3-5/6--3-1/3-5/6---3-1/3-5/6---3-1---------------------------|

|-------------------------------------------------------------------|
|-------------------------------------------------------------------|
|-----------------------------------------5-333333------------------|
|--3-1/3-5/6--3-1/3-5/6---3-1/3-5/6---3-1---------------------------|
|--3-1/3-5/6--3-1/3-5/6---3-1/3-5/6---3-1-3-111111------------------|
|--3-1/3-5/6--3-1/3-5/6---3-1/3-5/6---3-1---------------------------|

|-------------------------------------------------------------------|
|-------------------------------------------------------------------|
|-----------------------------------------7-888888------------------|
|--3-1/3-5/6--3-1/3-5/6---3-1/3-5/6---3-1---------------------------|
|--3-1/3-5/6--3-1/3-5/6---3-1/3-5/6---3-1-5-666666------------------|
|--3-1/3-5/6--3-1/3-5/6---3-1/3-5/6---3-1---------------------------|

|-------------------------------------------------------------------|
|-------------------------------------------------------------------|
|-------------------------------------------------------------------|
|--3-1/3-5/6--3-1/3-5/6---3-1/3-5/6---3------------1~---------------|
|--3-1/3-5/6--3-1/3-5/6---3-1/3-5/6---3------------1~---------------|
|--3-1/3-5/6--3-1/3-5/6---3-1/3-5/6---3------------1~---------------|

GtrII
|-------------------------------------------------------------------|
|-------------------------------------------------------------------|
|------8------------------------8--------7-888888-------------------|
|--5h6---6-5-6-5--3h5p3-----5h6---6-5-------------------------------|
|-----------------------6----------------5-666666-------------------|
|-------------------------------------------------------------------|

|-------------------------------------------------------------------|
|-------------------------------------------------------------------|
|------8------------------------8--------5-333333-------------------|
|--5h6---6-5-6-5--3h5p3-----5h6---6-5-------------------------------|
|-----------------------6----------------3-111111-------------------|

|-------------------------------------------------------------------|
|-------------------------------------------------------------------|
|------8------------------------8--------7-888888-------------------|
|--5h6---6-5-6-5--3h5p3-----5h6---6-5-------------------------------|
|-----------------------6----------------5-666666-------------------|
|-------------------------------------------------------------------|

|-------------------------------------------------------------------|
|-------------------------------------------------------------------|
|------8------------------------8-----------------------------------|
|--5h6---6-5-6-5--3h5p3-----5h6---6-------------1~------------------|
|-----------------------6-----------------------1~------------------|
|-----------------------------------------------1~------------------|
Добавлено: 24.03.2012
Другие материалы по этой песне:
  • Аккорды и текст

Страница создана 24.03.2012
http://primanota.ru/franco/seasons-chords.htm
Привет, Гость.
Предлагаем пройти революционный курс по гитаре.
Подарок от PrimaNota.Ru, забирай!