PrimaNota.ru - самый крупный в мире бесплатный архив песенных текстов, аккордов, табулатур и нот


Franco - Razor - таба, видео

Регистрация Запомнить меня
Войти через:  Facebook Google Twitter Vk Yandex Mail.ru

Franco - Razor - таба, видео

Печатать
Просмотров: 95
Уроки эстрадного вокала в Санкт-Петербурге
Razor
Franco
Soul Adventurer (2013)

Tuning: Drop C#

D#|--------------|
A#|--------------|
F#|--------------|
C#|--------------|
G#|--------------|
C#|--------------|


Intro
Figure out the strum pattern
-----------------------------|
-----------------------------|
--------11-----13-----14-----|   3x
-4---------------------------|
-4------9------11-----12-----|
-4---------------------------|


-------------------|
-------------------|
-------------------|
-4-----4~----------|
-4-----4~----------|
-4-----4~----------|





Verse riff
-----------------------------------------------------------------|
-----------------------------------------------------------------|
-----------------------------------------------------------------|
--------------------2--------------------------------------------| 4x
----2-4--x--x-x-x-----4--x--x-x-x---2-4-x--x-x-x-----2-4---2-4---|
--4------x--x-x-x-4------x--x-x-x-0-----x--x-x-x---0------0------|

End verse with
---------|
---------|
---------|
---2-----|
---2-----|
---2-----|

Chorus fig 1
--------------------------------|
--------------------------------|
--------------------------------|
-4-----7-----2-----0-----9------| 1x
-4-----7-----2-----0-----9------|
-4-----7-----2-----0-----9------|

Play the verse riff 4x then end with
-------|
-------|
-------|
---2---|
---2---|
---2---|

Chorus fig 2
-----------------------------|
-----------------------------|
-----------------------------|
-4-----7-----2-----0---------| 2x
-4-----7-----2-----0---------|
-4-----7-----2-----0---------|









Bridge 1
-------------------------------------------------------------------|
-------------------------------------------------------------------|
-------------------------------------------------------------------|
-2/4-4-x-2/4-4-x-2/4-4-x-7/4-4--2/4-4-x-2/4-4-x-2/4-4-x-4/2-2------|  5x
-2/4-4-x-2/4-4-x-2/4-4-x-7/4-4--2/4-4-x-2/4-4-x-2/4-4-x-4/2-2------|
-2/4-4-x-2/4-4-x-2/4-4-x-7/4-4--2/4-4-x-2/4-4-x-2/4-4-x-4/2-2------|

Bridge 2
Figure out the strumming again
--------------------------------------------------------------------------|
--------------------------------------------------------------------------|
--------------------------------------------------------------------------|
-5----2----9-----7----5----2----7----2--4-5----2----7----2-----5-----4----|
-5----2----9-----7----5----2----7----2--4-5----2----7----2-----5-----4----|
-5----2----9-----7----5----2----7----2--4-5----2----7----2-----5-----4----|

Solo
I don't know the lead but this is the rhythm (play it like the verse)
-------------------------------------------------------------------|
-------------------------------------------------------------------|
-------------------------------------------------------------------|
--------x--x-x-x----7----x--x-x-x----4---x--x-x-x---4--------4-----|  4x
---7-9--x--x-x-x------9--x--x-x-x-----5--x--x-x-x------5-------5---|
-9------x--x-x-x--9------x--x-x-x--5-----x--x-x-x-5-------5--------|

End with
------|
------|
------|
------|
--7~-
------
 Play chorus fig 2

Chorus fig 3
------------------------|
------------------------|
------------------------| 2x
-7-----4-----0----------|
-7-----4-----0----------|
-7-----4-----0----------|

Play bridge 1 4x

END


************************************

| /   slide up
| \   slide down
| h   hammer-on
| p   pull-off
| ~   vibrato
| +   harmonic
| x   Mute note
| b   Bend
| pb  Pre-bend
| br  Bend release
| pbr Pre-bend release
| brb Bend release bend

************************************
Добавлено: 17.07.2013
Другие материалы по этой песне:
  • Аккорды и текст

Страница создана 17.07.2013
http://primanota.ru/franco/razor-chords.htm
Привет, Гость.
Предлагаем пройти революционный курс по гитаре.
Подарок от PrimaNota.Ru, забирай!