PrimaNota.ru - самый крупный в мире бесплатный архив песенных текстов, аккордов, табулатур и нот


Franco - Next Train Out - таба, видео

Регистрация Запомнить меня
Войти через:  Facebook Google Twitter Vk Yandex Mail.ru

Franco - Next Train Out - таба, видео

Печатать
Просмотров: 63
Tabs by: Genesis Orantia, orantiagenesis@yahoo.com

Rate and Comment please.

Half-Step Down (Dropped)




Intro


eb|--------------------------------------------------------------------------|
Bb|--------------------------------------------------------------------------|
Gb|--------------------------------------------------------------------------|
Db|---------------------------12p11------------12p11-------------------------|
Ab|-----------5---------------------12p14------------12p14-------------------|
Eb|------4--5---5~-4-0-------9----------------9------------------------------|


eb|---------------------------------------------------------------------------|
Bb|---------------------------------------------------------------------------|
Gb|---------------------------------------------------------------------------|
Dd|---------------------------------------12p11------------12p11--------------|
Ad|----------5---4p5---------5------------------12p14------------12p14--------|
Db|------4--5---5~-------4--5---5~-4-0---9----------------9-------------------|


eb|--------------------------------------------------------------------------|
Bb|--------------------------------------------------------------------------|
Gb|--------------------------------------------------------------------------|
Db|--------------------------------------------------------------------------|
Ab|----------5----4p5--------5-----------------------------------------------|
Db|------4--5---5~-------4--5---5~-4-0---------------------------------------|


Verse I


I hope you understand my love . . . . .

eb|--------------------------------------------------------------------|
Bb|--------------------------------------------------------------------|
Gb|------4-------------------------------------------------------------|
Db|------4---------4-------(2x)-----------------------------------4----|
Ab|------2-(12)----4-(12)-----------------------------------------4----|
Db|----------------4---------------999--111111--121212--141414----4----|


Have to hide the lie now it takes me . . .

eb|--------------------------|
Bb|--------------------------|
Gb|--------------------------|
Db|---------7----5----4-5----|
Ab|---------7----5----4-5----|
Db|---------7----5----4-5----|

CHORUS

eb|------------------------------------------------|
Bb|----5-------------------------------------------|
Gb|----7------7-----9-----5------------------------|
Db|----7------7-----9-----5------------------------|
Ab|----0------7-----9-----5--------5---------------|
Db|----0------7-----9-----5----4--5--5~-4-0--------|


eb|---------------------------------------------------------------------|
Bb|---------------------------------------------------------------------|
Gb|---------------------------------------------------------------------|
Db|----12p11------------12p11-------------------------------------------|
Ab|----------12p14------------12p14-------------------------------------|
Db|--9----------------9-------------------------------------------------|

eb|--------------------------------------------------------------------|
Bb|--------------------------------------------------------------------|
Gb|--------------------------------------------------------------------|
Db|--------------------------------------12p11------------12p11--------|
Ab|---------5----4p5-------5------------------12p14------------12p14---|
Db|-----4--5--5~-------4--5--5~-4-0----9----------------9--------------|


eb|----------------------------------------------------|
Bb|----------------------------------------------------|
Gb|----------------------------------------------------|
Db|----------------------------------------------------|
Ab|---------5----4p5--------5--------------------------|
Db|-----4--5---5~-------4--5---5~-4-0------------------|


Verse II

Run go on and run will this consume me . . . .

eb|--------------------------------------------------------------------|
Bb|--------------------------------------------------------------------|
Gb|------4-------------------------------------------------------------|
Db|------4---------4-------(2x)-----------------------------------4----|
Ab|------2-(12)----4-(12)-----------------------------------------4----|
Db|----------------4---------------999--111111--121212--141414----4----|

do you have to hide the lie now it takes me . . .

eb|--------------------------|
Bb|--------------------------|
Gb|--------------------------|
Db|---------7----5----4-5----|
Ab|---------7----5----4-5----|
Db|---------7----5----4-5----|

CHORUS

eb|-------------------------------------|
Bb|----5--------------------------------|
Gb|----7------7-----9-----5-------------|
Db|----7------7-----9-----5-------(x2)--|
Ab|----0------7-----9-----5-------------|
Db|----0------7-----9-----5-------------|

INTERLUDE

eb|-------------------------------------------------------------|
Bb|-------------------------------------------------------------|
Gb|-------------------------------------------------------------|
Db|-------------------------------------------------------------|
Ab|---55-------55--------55-------55------(2x)----5h7p5-0-------|
Db|-44--777--44--77---55---777--55--77--------------------------|

eb|-------------------------------------------------------------|
Bb|-------------------------------------------------------------|
Gb|-------------------------------------------------------------|
Db|-------------------------------------------------------------|
Ab|---55-------55--------55-------55------(2x)----5h7p5-0-------|
Db|-44--777--44--77---55---777--55--77--------------------------|

OUTRO

Relax, release, in time we'll see . . .

eb|--------------------------------|
Bb|--------------------------------|
Gb|--------------------------------|
Db|---------5----7----9----7-------|
Ab|---------5----7----9----7-------|
Db|---------5----7----9----7-------|

In moments of distress  . . .

eb|--------------------------------|
Bb|--------------------------------|
Gb|--------------------------------|
Db|---------2--------5-----(2x)----|
Ab|---------2--------5-------------|
Db|---------2--------5-------------|

CHORUS

eb|-------------------------------------|
Bb|----5--------------------------------|
Gb|----7------7-----9-----5-------------|
Db|----7------7-----9-----5-------(x2)--|
Ab|----0------7-----9-----5-------------|
Db|----0------7-----9-----5-------------|


eb|------------------------------------------------------|
Bb|------------------------------------------------------|
Gb|------------------------------------------------------|
Db|------------------------------------------------------|
Ab|---------5----4p5----(3x)---------5-------------------|
Db|-----4--5---5~----------------4--5---5~-4-0--(BREAK)--|


One Love! Peace!
Добавлено: 07.12.2013
Другие материалы по этой песне:
  • Аккорды и текст

Страница создана 07.12.2013
http://primanota.ru/franco/next-train-out-chords.htm
Привет, Гость.
Предлагаем пройти революционный курс по гитаре.
Подарок от PrimaNota.Ru, забирай!