PrimaNota.ru - самый крупный в мире бесплатный архив песенных текстов, аккордов, табулатур и нот


Franco - For My Dearly Departed - аккорды и текст, видео

Регистрация Запомнить меня
Войти через:  Facebook Google Twitter Vk Yandex Mail.ru

Franco - For My Dearly Departed - аккорды и текст, видео

Печатать
Просмотров: 75
For My Dearly Departed
Franco
For My Dearly Departed
Franco Reyes

*salamat pala kay Ralph Paulo Herrera sa pag kopya ng mp3! hehe

Im not 100% sure pero katunog naman yung iba, 
Sa strumming, kayu na bahala! sabayan niyo sa kanta :D thx!

Tuning: Eb Ab Db Gb Bb eb

  G     C9     Am      Em
|-3-|  |-3-|  |-0-|  |-0-|
|-3-|  |-3-|  |-1-|  |-0-|
|-0-|  |-0-|  |-2-|  |-0-|
|-0-|  |-2-|  |-2-|  |-2-|
|-2-|  |-3-|  |-0-|  |-2-|
|-3-|  |-0-|  |-0-|  |-0-|

INTRO:

|-3--33-----3-3-3-----3--33----3-3-3---xx---------|
|-3--33-----3-3-3-----3--33----3-3-3---xx---------|
|-0--00-----0-0-0-----0--00----0-0-0---xx---------| (2x)
|-0--00-----0-0-0-----0--00----0-0-0---xx---------|
|-2--22h3---2-2-2h3---2--22h3--2-2-2h3-xx---------|
|-3--33-----3-3-3-----3--33----3-3-3---xx---------|



G
When I wake up it seems
      C9
Like my world is caving in
     Am                     C9
I won't break down this time
           G(intro)
I'll be fine


G
With dull dimension speaking of the truth
C9
And howls of chaos the bleeding of the moon
Am                 C9
Rounding up this time
           G(intro)
I'll be fine

         Am          C9
Let your love caress me
         Em                 C9
Like the tide embraces the sea
     Am
Let our soul connection
C9                 G(intro)
Bring me alive today


   G
Am I lost and can be found
           C9
Heaven's locked, hell not a sound
      Am                 C9
All my angels left and gone
Em
It rains down


G
Turn the key enough for rescue
    C9
And burn the light
The light that burns through
    Am               C9
But here it comes again
Em            C9 - Am - C9
It rains down



(Chords in this Part)
  G          C              D         C9
|-3-|  |-00-000000-|  |-22-333333-|  |-3-|
|-3-|  |-00-111111-|  |-33-333333-|  |-3-|
|-0-|  |-00-000000-|  |-22-222222-|  |-0-|
|-0-|  |-22-222222-|  |-----------|  |-2-|
|-2-|  |-33-333333-|  |-----------|  |-3-|
|-3-|  |-00-000000-|  |-----------|  |-0-|

G                          C
Well live your life a little
                          D
Breathe in and out a little
        C9
I say a prayer for you


Interlude

|--33333333-------00-0000000-------00-0000000------00-0000000-------|
|--33333333-------00-1111111-------11-0000000------11-0000000-------|
|--00000000-(2x)--00-0000000-(2x)--22-2222222------00-0000000-(2x)--|
|--00000000-------22-2222222-------22-2222222------22-2222222-------|
|--22222222-------33-3333333-------00-0000000------33-3333333-------|
|--33333333-------00-0000000-------00-0000000------00-0000000-------|

then..

|-3--33-----3-3-3-----3--33----3-3-3------------|
|-3--33-----3-3-3-----3--33----3-3-3------------|
|-0--00-----0-0-0-----0--00----0-0-0------------|
|-0--00-----0-0-0-----0--00----0-0-0------------|
|-2--22h3---2-2-2h3---2--22h3--2-2-2h3----------|
|-3--33-----3-3-3-----3--33----3-3-3------------|



         Am          C9 or C
Let your love caress me
         Em                 C9 or C
Like the tide embraces the sea
     Am
Let our soul connection
C9 or C            Em - C - Am - C (ends with G)
Bring me alive today

                   *END*
Добавлено: 22.06.2012
Другие материалы по этой песне:

Страница создана 27.03.2012
http://primanota.ru/franco/for-my-dearly-departed-chords.htm
Привет, Гость.
Предлагаем пройти революционный курс по гитаре.
Подарок от PrimaNota.Ru, забирай!