PrimaNota.ru - самый крупный в мире бесплатный архив песенных текстов, аккордов, табулатур и нот


Franco - A Beautiful Diversion - таба, видео

Регистрация Запомнить меня
Войти через:  Facebook Google Twitter Vk Yandex Mail.ru

Franco - A Beautiful Diversion - таба, видео

Печатать
Просмотров: 59
-------------------------------------------------------------------------------
                             A Beautiful Diversion - FRANCO
-------------------------------------------------------------------------------
Tabbed by: PinnaclePlum
E-mail:

Tuning: Drop C#

      INTRO
e|----------------|             e|------------xx---|
B|----------------|             B|------------xx---|
G|----------------|             G|------------xx---|
D|--7---5---------| (REPEAT 3x) D|--7---5-----xx---| (end of intro)
A|--5---2---------|             A|--5---2-----xx---|
D|----------------|             D|------------xx---|

      VERSE
e|-------------------|
B|-------------------|
G|--------------4----|
D|--0--4--0--4--4----| (REPEAT 2x)
A|--0--2--0--2--2----|
D|--0-----0----------|

e|-----------------|
B|-----------------|
G|-----------------|
D|--5----2----0----| (pre-chorus)
A|--5----2----0----|
D|--5----2----0----|

     CHORUS                      (...caught a wave this moment...)
e|--------------|             e|------------------------------------------------------------|
B|--------------|             B|------------------------------------------------------------|
G|--------------|             G|------------------------------------------------------------|
D|--0---2---5---| (REPEAT 2x) D|---------9------7------5------------------------------------|
A|--0---2---5---|             A|---------9------5------5------------------------------------|
D|--0---2---5---|             D|---------9-------------5------------------------------------|

  (...I feel ALIVE...)
e|----------------------------------------------------------------------------|
B|----------------------------------------------------------------------------|
G|----------------------------------------------------------------------------| (repeat last part, but
D|----------------------------------------------------------------------------|  ending in 5th fret) 
A|-0-4-5-0-2-0-----------------4-5-0-2-0------------4-5-0-2-0-----------------|
D|-------------2-0-3-0-5-0-7-0-----------2-0-3-0-5------------2-0-3-0-5-0-7-0-|

  (...Hey there, how are you...)
e|-------------------------------| e|------------------------------------------------------|
B|-------------------------------| B|------------------------------------------------------|
G|-------------------------------| G|------------7-7/9-9-9/11-11-11-----------4-4/6-6-6----|
D|--5---0---2--------------------| D|--------0----------------------------0----------------| (REPEAT 6x)
A|--5---0---2----(repeat 4x)-----| A|------5-0---5-5/7-7-7/9--9--9------5-0---2-2/4-4-4----|
D|--5---0---2--------------------| D|--4-5---0----------------------4-5---0----------------|

  (...Riding the waves...)              (...making this moment free your mind...)
e|-----------------------------------| e|----------------------------------------------|
B|-----------------------------------| B|----------------------------------------------|
G|-----------------------------------| G|----------------------------------------------|
D|--5---7---0---2---5----------------| D|--0---2---5-----------------------------------|
A|--5---7---0---2---5---(repeat 2x)--| A|--0---2---5---(repeat 2x)---------------------|
E|--5---7---0---2---5----------------| D|--0---2---5-----------------------------------|

e|----------------------------------------|             e|-------|
B|----------------------------------------|             B|-------|
G|----------------------------------------|             G|-------|
D|--4--5--7--9--11/12---4--5--7--5--2/4---| (REPEAT 4x) D|---7---| (END)
A|--4--5--7--9--11/12---4--5--7--5--2/4---|             A|---7---|
D|--4--5--7--9--11/12---4--5--7--5--2/4---|             D|---7---|
Добавлено: 22.06.2016
Другие материалы по этой песне:
  • Аккорды и текст

Страница создана 22.06.2016
http://primanota.ru/franco/beautiful-diversion-chords.htm
Привет, Гость.
Предлагаем пройти революционный курс по гитаре.
Подарок от PrimaNota.Ru, забирай!