PrimaNota.ru - самый крупный в мире бесплатный архив песенных текстов, аккордов, табулатур и нот


Franco Morone - Sunset Song - таба, видео

Регистрация Запомнить меня
Войти через:  Facebook Google Twitter Vk Yandex Mail.ru

Franco Morone - Sunset Song - таба, видео

Печатать
Просмотров: 131
I am told this is NOT franco's version, but a take on his song,by 'vreci' on youtube
anyway here you go, enjoy, its beautiful

---0----------------0-------|--0------0----4p0------------------------|
-.----5----------0----------|-------0-----------------------.---------|
-----------1----------------|-------------------X2--------------------|
-------------4----4---------|----/7----7------------------------------|
-.-------2------------------|--0----------------------------.---------|
-----0---------0------0-----|-----------------------------------------|

-|-0-----------------0-------|-------------0-------------0-----|
-|.----------4-5------5------|-5-4---------------4-5-----------|
-|--------------6---------6--|----6-------6---6-----6----------|
-|.-------6---------------6--|-----------6---------------------|
-|---4-----------------------|---------------------------------|
-|---------------------------|---------6----------------6------|

-----------------0---------------|--------------------------|
-----4-5---0------------4-5---5--|---5p4---0-----5--------|.|
---------6------------------6---6|-------6-------------1----|
--6-----------------6------------|-------------4-----4----|.|
-----------------0---------------|-----------------------2--|
---------------------------------|----------0------0--------|

|--0---9---0-0------------9--0-0|--------7-----0--------0------|
|.------------------7-----------|------------------------------|
|----------------9----9---------|--9-------8------8--8---------|
|-------------------------------|-------------------6----------|
|.----0-----------------0-------|------------------------------|
|-------------------------------|------------------------------|


                                     1____________________________
-7--------------7----7p0------------|------------------0---------|
-------5----5-----5-------5------5--|------4p0----0--4----5s4-0-.|
------------------------------------|----------------------------|
----------6--------------------6----|----------6----------------.|
-----------------------------7------|----4-----------------------|
----4------------------4------------|----------------------------|


2_____________________________
-------------------0---------|------------------------------------|
-------4p0----0--4----4-0----|------(0)------------0-(0)----------|
-----------------------------|--2-----(2)--------4----------------|
-----------6--------------6--|--2-------(2)------4----------------|
-----4-----------------------|------------------------------------|
-----------------------------|--2----------------4----------------|

--------------4s-2---0-----0--|----------------------------------------|
-(2)-------5-------------4----|-----------0---5------------------------|
^-4----2h4----4s-2---1--------|----1-----------------------------------|
--2----2----------------------|-----4-------4---4----------------------|
--0---------------------------|-2-----2--------------------------------|
---------------------------0--|---------0---------0--------------------|


-----------------------------|---0-----0---------0----0----------------|
--------0-5------------------|----------------3------------3-----------|
---1--1-------1--------------|---------------0----------0--------------|
----4-----------4------------|-----------------------------------------|
-2-----------2---------------|--2-----3----3---------3-----------------|
-----------0-----------------|-----------------------------------------|

-----0-0-------------0--0--0-|-------0-0--0-0----0----------------------|
-----------3-----------------|------------------------------------------|
----------0--0---------------|-------------------------1----1-----------|
-----------------------------|----------------------------4-------------|
-3----------------3-----------|-3----------------------2----------------|
----------------------------|-----------------------0--------0----------|


*
-----------------------------|----0---------0---0------0---2---3---------|
-----0--------5--------------|-----------3-------------------------------|
----1----1---------1---------|-----------0-------------------------------|
-------4---------4-----------|-------------------------------------------|
--2-----------------2----2---|--3----3--------------3--------------------|
-0----------0---------0------|-------------------------------------------|


                 *(fade out as you continue picking the Eadd9 chord)
---2h3p2p0---------0-----------|
------------------0----0-------|
-------------------------------|
---------------4---------------|
---------------------2---------|
-------------0-----------0-----|

*note; watch him play to pick out his picking pattern, i havent fully notated it here, 
the chords are right (90% sure)
Добавлено: 25.04.2012
Вам также может быть интересно:
Другие материалы по этой песне:
  • Аккорды и текст

Страница создана 25.04.2012
http://primanota.ru/franco-morone/sunset-song-chords.htm
Привет, Гость.
Предлагаем пройти революционный курс по гитаре.
Подарок от PrimaNota.Ru, забирай!