PrimaNota.ru - самый крупный в мире бесплатный архив песенных текстов, аккордов, табулатур и нот


Franco Micalizzi - Trinity Titoli - таба, видео

Регистрация Запомнить меня
Войти через:  Facebook Google Twitter Vk Yandex Mail.ru

Franco Micalizzi - Trinity Titoli - таба, видео

Печатать
Просмотров: 306
Авторы: Harold Stott, Franco Micalizzi

Artist: Franco Micalizzi
Song: Trinity Titoli
Album: Lo Chiamavano Trinità (movie soundtrack, 1970)
Tabbed by: JAW (jawmon at ii.net)


 From the soundtrack "Lo Chiamavano Trinità" aka "They Call me Trinity".
A wonderfully entertaining 70's spaghetti western movie with Terrance
Hill and Bud Spencer; this music piece captures the flavour of the time
and style.

Play it light hearted and skippy, don^Òt play it like a prelude. Track
down a sample of the tune, there is some streaming versions of it
floating around on the CD sales sites. Google up "Trinity Franco
Micalizzi".

It centres around a chord progression of Dm-C-G-Bb. I've tabbed the
instrumental intro up to the singing part, the rest of the song is just
repeats of the same riffs, you'll need to have a listen.

Studio recording was played on a nylon string.



e|-----1---------1----|-----1---------1----|
b|-----3---------3----|-----3---------3----|
g|---2----2----2----2-|---2----2----2----2-|
d|0-------------------|0-------------------|
a|----------0---------|----------0---------|
E|--------------------|--------------------|


e|-----1--0---------|
b|-----3--1---------|
g|---2----2---------| x3
d|0-----------------|
a|--------0---------|
E|------------------|


e|-----1---------1----|-----0----3p0--------|
b|-----3---------3----|-----1-------1-------|
g|---2----2----2----2-|---0----0------0-----| x2
d|0-------------------|-----------------2---|
a|----------0---------|3------------------3-|
E|--------------------|---------------------|

I.................
e|-----1---------1----|-----3---------------|----1---------1---|
b|-----3---------3----|-----0---------------|----3---------3---|
g|---2----2----2----2-|---0----0----0-------|--3----3----3----3|
d|0-------------------|----------0h2------0-|------------------|
a|----------0---------|----------------0h2--|1---------1-------|
E|--------------------|3--------------------|------------------|

III.............VI......V.......III.............VI....
e|1---1---3---3---3---3---6---6---5---5---5---5---3---3---6---6-|
b|3---3---5---5---3---3---6---6---6---6---5---5---3---3---6---6-|
g|2---2---5---5---4---4---7---7---7---7---5---5---4---4---7---7-|
d|0---0---------------------------------------------------------|
a|--------3---3-----------6---6---5---5---3---3-----------6---6-|
E|----------------3---3---------------------------3---3---------|

     
Добавлено: 07.08.2013
Другие материалы по этой песне:
  • Аккорды и текст

Страница создана 07.08.2013
http://primanota.ru/franco-micalizzi/trinity-titoli-chords.htm
Привет, Гость.
Предлагаем пройти революционный курс по гитаре.
Подарок от PrimaNota.Ru, забирай!