PrimaNota.ru - самый крупный в мире бесплатный архив песенных текстов, аккордов, табулатур и нот


Franco De Vita - Como Decirte No - таба, видео

Регистрация Запомнить меня
Войти через:  Facebook Google Twitter Vk Yandex Mail.ru

Franco De Vita - Como Decirte No - таба, видео

Печатать
Просмотров: 184
Artista: Franco De Vita
Cancion: Como Decirte no
Album: Segundas Partes Tambien Son Buenas
By: Edgar20393

Bueno aki les dejo esta buena rola de franco de vita 
pienso ke no esta al 100 correcta pero se escucha bn 
jeje :D

INTRO:

e------0-0-2-3---7-2-----------0----0-0-2-5-3-|
B-----1--------------3-1-0-1-3----3-----------|
G----0-----0----------------------------------|
D---2-----------------------------------------|
A--3------------------------------------------|
E-0-------------------------------------------|
 Em           D
Como decirte no
 Bm                Em
Si se bien que estoy mintiendo
             D
Como decirte no 
       Bm                Em
Si eso no es lo que yo siento.

Em           D
Como decirte no
      Bm           Em
y borrarte de mis sueños
             D
Como decirte no
            Am           Em                 
Y si te he visto no me acuerdo.

e--0-2-3-2-2-3-5-|
B--------3-------|
G--------2-------|
D--------0-------|
A----------------|
E----------------|
         G
Y he tratado de escaparme
      Am
De salirme de esta historia
           D
Por que entiendo que fui yo 
    C
El ultimo en llegar.

Pero el corazón no entiende
      Am
Y no sabe de contar
               D
Si es que hay uno o mas de uno 
     C
Para él eso es igual y es por eso que....

G                  
Prefiere compartirte 
Am
Antes de perderte
   D                
Y seguir soñando 
   C
y seguir viviendo.


G                            
Y seguir pensando 
   Am
Que algún día las cosas cambiaran
      D                         
Para bien o para mal 
            C
Ya es muy tarde para regresar.

e--0-2-5-3-|
B-3--------|
G----------|
D----------|
A----------|
E----------|

Em            D
Como decirte no
        Bm           Em
Si me bailas en los sesos
              D
Como decirte no
        B                   Em
Si te calaste hasta en mis huesos.

Em           D
Como decirte no
     Bm              Em
Y salirme de este infierno
             D 
Como decirte no
            Bm          Em                  
Y si te he visto no me acuerdo.

e-0-2-3-2-2-3-5-|
B-------3-------|
G-------2-------|
D-------0-------|
A---------------|
E---------------|

Y he tratado de escaparme
      Am
De salirme de esta historia
        D
De esfumarme y de perderme
         C
Y de borrarme de una vez.

    G
Pero el corazón insiste
      Am
Que será lo que le diste
           D
Que no es capaz de sustituirte
       C
Y comenzar una vez mas.

Pero lo sabes bien que hasta es capaz de compartirte 
Am
Antes de perderte
   D
Y seguir soñando
   C
Y seguir viviendo

    G
Y seguir pensando
           Am
Que algún día las cosas cambiaran
      D
Para bien o para mal
           C
Ya es muy tarde para regresar.

SOLO>>>>>>

e--3-3/5-5-5/7-8-8-7-7-5-5-3-3-2-2-2/3--3-2-2-0-0-------------
B-------------------------------------------------3-3-0-0-0/1-
G-------------------------------------------------------------
D-------------------------------------------------------------
A-------------------------------------------------------------
E-------------------------------------------------------------

e-3-3/5-5-3-3-5-5-5/7-7/8-8-7-5-|
B-------------------------------|
G-------------------------------|


A
Oh! Y he tratado de escaparme
     Bm
De salirme de esta historia
           E
Por que entiendo que fui yo 
   D
El ultimo en llegar.

           A
Pero el corazón no entiende
      Bm
Y no sabe de contar
           E
Si es que hay uno o mas de uno 
     D                     
Para él eso es igual.


      A
Y he tratado de escaparme
      Bm
De salirme de esta historia
        E
De esfumarme y de perderme
        D
Y de borrarme de una vez.

             A
Pero el corazón insiste 
       Bm
Que será lo que le diste
           E
Que no es capaz de sustituirte
        D
Y comenzar una vez mas.

        A
Pero lo sabes bien que hasta es capaz de compartirte 
Bm
Antes de perderte
   E
Y seguir soñando
         D                
Pero no se hasta cuando...

final>>>

e----2--2-4-5-9-4-0-----0--|
B---3------------------2---|
G--2------------------2----|
D-0------------------2-----|
A-------------------0------|
E--------------------------|

Dudas o comentarios
cartablanca_evitaelexeso@hotmail.com
Добавлено: 02.07.2012
Другие материалы по этой песне:
  • Аккорды и текст

Страница создана 02.07.2012
http://primanota.ru/franco-de-vita/como-decirte-no-chords.htm
Привет, Гость.
Предлагаем пройти революционный курс по гитаре.
Подарок от PrimaNota.Ru, забирай!