PrimaNota.ru - самый крупный в мире бесплатный архив песенных текстов, аккордов, табулатур и нот


Franco Battiato - Il Re Del Momdo - бас-таба, видео

Регистрация Запомнить меня
Войти через:  Facebook Google Twitter Vk Yandex Mail.ru

Franco Battiato - Il Re Del Momdo - бас-таба, видео

Печатать
Просмотров: 100
IL RE DEL MONDO
by Franco Battiato

Standard Tuning (E,A,D,G)

MAIN RIFF
|-----------------|-----------------|
|-----------------|-----------------|
|-------------0-2-|---2---------0-2-|
|----0-0-2-2-4----|----0-0-2-2-4----|

when piano enters, bass do this riff:
|----------|---------|
|----------|---------|
|---22---2-|-2---2---|
|-0----0---|---0---0-|

VERSE
|-----------------| |-----------------|
|-----------------| |-------------0-2-|
|---2---------0-2-| |----0-0-2-2-4----|
|----0-0-2-2-4----| |-----------------|x2 

|-----------------|   |-----------------|
|-----------------|   |-------------0-2-|
|---2---------0-2-|   |----0-0-2-2-4----|
|----0-0-2-2-4----|x2 |-----------------|x2 


|-----------------|
|-----------------|
|---2---------0-2-|   
|----0-0-2-2-4----| 

CHORUS
|-----|-----|-----|---|---|
|-----|-----|-----|---|---|
|-----|-3-3-|-5-5-|-2-|-3-|
|-2-2-|-----|-----|---|---|

this is very easy to play when you get the right timing of the main riff.
Enjoy yourself!
Добавлено: 14.06.2012
Другие материалы по этой песне:
  • Аккорды и текст

Страница создана 14.06.2012
http://primanota.ru/franco-battiato/il-re-del-momdo-chords.htm
Привет, Гость.
Предлагаем пройти революционный курс по гитаре.
Подарок от PrimaNota.Ru, забирай!