PrimaNota.ru - самый крупный в мире бесплатный архив песенных текстов, аккордов, табулатур и нот


Francisco Tarrega - Rosita - таба, видео

Регистрация Запомнить меня
Войти через:  Facebook Google Twitter Vk Yandex Mail.ru

Francisco Tarrega - Rosita - таба, видео

Печатать
Просмотров: 158
E-|---Song:-Rosita---------------------------------|
A-|---Composer:-Francisco-Tarrega------------------|
D-|---Transcription-by:Christian Liang-------------|
G-|---E-Mail:christian.liang@gmail.com-------------|   
B-|---http://www.classclef.com---------------------|
E-|---Enjoy!---------------------------------------|

==========================================================================
                 Rosita by Francisco Tarrega (1911–1979)
==========================================================================


Time Signature 2/4

Part A (twice - different endings)
Key Signature: D Major

[1]
E||------------------------2/5-------|---5---------------5---------------|
B||----------------------------------|-----------7---------------7-------|
G||*---------------------------------|-----------7---------------7-------|
D||*---------------------------------|---0-------------------------------|
A||----------------------------------|-------------------0---------------|
D||----------------------------------|-----------------------------------|
 |   |   |   |   |   |   |   |   |   |   |   |   |   |   |   |   |   |   |
L                            1           1       4       1       4
                                                 3               3


[3] 
E||--5-----------------------9---10--|---9-p-12--7-p-10--5-p-9-----------|
B||----------8-------10--12----------|---------------------------8-/-12--|
G||*---------6-----------------------|-----------------------------------|
D||*---------------------------------|-----------------------------------|
A||--7-------------------------------|---0==============-----------------|
D||----------------------------------|-----------------------------------|
 |   |   |   |   |   |   |   |   |   |   |   |   |   |   |   |   |   |   |
L    1       4       2   4   1   2       1   4   1   4   1   4   3   3
     3       2                                   


[5]                                                      V5...............
E||----------------------------------|-2/5---------------5---------------|
B||--12------10------10--------------|-----------7---------------7-------|
G||*---------11------11--------------|-----------7---------------5-------|
D||*----------------<12>-------------|---0-------------------------------|
A||----------------------------------|-------------------6---------------|
D||--0-------------------------------|-----------------------------------|
 |   |   |   |   |   |   |   |   |   |   |   |   |   |   |   |   |   |   |
L    3       1       1                   1       4       1       4                            
             2       2                           3       2       1
                     3

[3]  V5..............IX5.............                    II..............
E|---5---------------------------9---|14p12------0-------2-------4-------|
B|-----------5---------------10------|---------------------------3-------|
G|-----------6-----------9-----------|---------------------------4-------|
D|-------------------11--------------|---------------------------2-------|
A|---7-------------------------------|-----------------------------------|
D|-----------------------------------|-------------------2---------------|
 |   |   |   |   |   |   |   |   |   |   |   |   |   |   |   |   |   |   |
L    1       1       3   1   2   1     4p2               1       4
     3       2                                           1       2
                                                                 3
                                                                 1
   __________________________________  ___________________________________
  |1.                                 |2.
     II3                                 II3
[5]
E|---5------------------------------||---5-------------------------------|
B|---2------------------------------||---2-------------------------------|
G|---2-----------------------------*||---2-------------------------------|
D|---------------------------------*||---------6/7-----------------------|
A|---0-------<12>-------------------||---0-------------------------------|
D|----------------------------------||---------6/7-----------------------|
 |   |   |   |   |   |   |   |   |   |   |   |   |   |   |   |   |   |   |
L    4                                   4       4
     1                                   1       3
     1                                   1

Part B (twice - different endings)
Key Signature: D Major

[8]
E||----------------------2---3---5---|---7-------5-------5-----7/10------|
B||----------2---3---5---------------|-----------7-------7---------------|
G||*-2---4---------------------------|-----------7-------7---------------|
D||*---------------------------------|-----------------------------------|
A||--0---------------0---------------|-----------------------------------|
D||----------------------------------|---0===============----------------|
 |   |   |   |   |   |   |   |   |   |   |   |   |   |   |   |   |   |   |
L    1   2   1   2   4   1   2   4       4       1       1       4
                                                 3       3
                                                 2       2

[10] VII5................                IX5........................
E|---10------9-------9-----9/12------|---12------10------10--------------|
B|-----------8-------8---------------|-----------------------------------|
G|-----------9-------9---------------|-----------11------11--------------|
D|-----------------------------------|-----------9-------9---------------|
A|---7====================-----------|---9====================-----------|
D|-----------------------------------|-----------------------------------|
 |   |   |   |   |   |   |   |   |   |   |   |   |   |   |   |   |   |   |
L    4       4       4       4           4       2       2    
     1       2       2                   2       3       3
             3       3                           1       1

[12]                                                             X3......
E|---9-p-7---6---7---12-p10--9-------|---------------------------14-p10--|
B|---0---------------------------12--|-7/12------10------10--------------|
G|---0---------------0---------------|-----------11------11--------------|
D|-----------------------------------|-----------12------12--------------|
A|-----------------------------------|---0===============----------------|
D|-----------------------------------|-----------------------------------|
 |   |   |   |   |   |   |   |   |   |   |   |   |   |   |   |   |   |   |
L    4   2   1   2   4   2   1   4       4       1       1       4   1
                                                 2       2
                                                 3       3

[14]                                             VII3.......
E|-------10------------------<12>----|-----------10---------------------||
B|---10----------10------------------|---3-------7----------------------||
G|-----------11--------------<12>----|-----------7---------------------*||
D|-----------------------------------|---4-------0---------------------*||
A|---0---------------<12>------------|----------------------------------||
D|-----------------------------------|---0------------------------------||
 |   |   |   |   |   |   |   |   |   |   |   |   |   |   |   |   |   |   |
L    1   1   2   1   3       3           2       4
                             3           3       1
                                                 1
Part C (twice with different endings)
Key Signature: G Major

[16] >               >                   >
E||----------------------------------|-----------------------------------|
B||----------3---------------3-------|-----------3-------3---------------|
G||*---------4---------------4-------|-----------5-------5-------2---4---|
D||*-5---------------0---------------|---4-------------------5-----------|
A||----------------------------------|---0-------------------------------|
D||--5---------------0---------------|-----------------------------------|
 |   |   |   |   |   |   |   |   |   |   |   |   |   |   |   |   |   |   |
L    4       1               1           2       1       1   3   1   3
     3       2               2                   4       4


[18] >               >                           III3............
E|-----------2---------------2-------|-----------3-------3---------------|
B|-----------3---------------3-------|-----------3-------3---------------|
G|---5---------------5---------------|---5-------4-------4---------------|
D|-------------------0---------------|-----------------------------------|
A|-----------------------------------|-----------------------------------|
D|---0-------------------------------|---5===============----------------|
 |   |   |   |   |   |   |   |   |   |   |   |   |   |   |   |   |   |   |
L    4       1       4       1           4       1       1
             2               2           3       1       1
                                                 2       2
     ________________________________
    |1.                                  
[20]                                     XI4..................
E|-7/10-----------10/15--------------|---14-p12------------------0-------|
B|-----------0---------------0-------|-----------13----------------------|
G|---0-----------------------0-------|---------------14--11--------------|
D|--------------------0--------------|-----------------------------------|
A|-----------------------------------|---0-------------------------------|
D|-----------------------------------|-----------------------------------|
 |   |   |   |   |   |   |   |   |   |   |   |   |   |   |   |   |   |   |
L    4               4                   4   2   3   4   1
     * easier with cutaway


[22]                                             
E|-5/8-------------8/14--------------|---12p-10--7----------------------||
B|-----------7---------------13------|---------------8------------------||
G|-----------7---------------14------|---0---------------9---p---7-----*||
D|---0---------------0---------------|---------------------------------*||
A|-----------------------------------|----------------------------------||
D|-----------------------------------|----------------------------------||
 |   |   |   |   |   |   |   |   |   |   |   |   |   |   |   |   |   |   |
L    4       3       4       2           4   2   1   2   3       1
             2               3

     ________________________________
    |2.
[24] V4..............VI4.............    VII4............
E|-----------7---------------10------|-----------8-------------------5---|
B|-----------8-------6---------------|-----------10--------------5-------|
G|---7-------------------7-----------|---9-------------------5-----------|
D|---5---------------6---------------|---7-------------------------------|
A|-----------------------------------|-------------------3---------------|
D|-----------------------------------|-----------------------------------|
 |   |   |   |   |   |   |   |   |   |   |   |   |   |   |   |   |   |   |
L    2       3       1   2   4           3       2       1   2   3   4
     1       4       1                   1       4


[26] III3...........
E|---3---------------2---------------|---3-------------------------------|
B|-----------3---------------1-------|---0-------------------------------|
G|-----------4---------------2-------|---0-------------------------------|
D|---0---------------0---------------|-----------0-----------------------|
A|-----------------------------------|-----------------------------------|
D|-----------------------------------|-------------------5---------------|
 |   |   |   |   |   |   |   |   |   |   |   |   |   |   |   |   |   |   |
L    1       1       3       1           1               3
             2               2

Part A (once - ending 2)
Key Signature: D Major

[28]
E||------------------------2/5-------|---5---------------5---------------|
B||----------------------------------|-----------7---------------7-------|
G||*---------------------------------|-----------7---------------7-------|
D||*---------------------------------|---0-------------------------------|
A||----------------------------------|-------------------0---------------|
D||----------------------------------|-----------------------------------|
 |   |   |   |   |   |   |   |   |   |   |   |   |   |   |   |   |   |   |
L                            1           1       4       1       4
                                                 3               3


[30] 
E||--5-----------------------9---10--|---9-p-12--7-p-10--5-p-9-----------|
B||----------8-------10--12----------|---------------------------8-/-12--|
G||*---------6-----------------------|-----------------------------------|
D||*---------------------------------|-----------------------------------|
A||--7-------------------------------|---0============-------------------|
D||----------------------------------|-----------------------------------|
 |   |   |   |   |   |   |   |   |   |   |   |   |   |   |   |   |   |   |
L    1       4       2   4   1   2       1   4   1   4   1   4   3   3
     3       2                                   


[32]                                                     V5...............
E||----------------------------------|-2/5---------------5---------------|
B||--12------10------10--------------|-----------7---------------7-------|
G||*---------11------11--------------|-----------7---------------5-------|
D||*----------------<12>-------------|---0-------------------------------|
A||----------------------------------|-------------------6---------------|
D||--0-------------------------------|-----------------------------------|
 |   |   |   |   |   |   |   |   |   |   |   |   |   |   |   |   |   |   |
L    3       1       1                   1       4       1       4                            
             2       2                           3       2       1
                     3

[34] V5..............IX5..............                   II..............
E|---5---------------------------9---|14p12------0-------2-------4-------|
B|-----------5---------------10------|---------------------------3-------|
G|-----------6-----------9-----------|---------------------------4-------|
D|-------------------11--------------|---------------------------2-------|
A|---7-------------------------------|-----------------------------------|
D|-----------------------------------|-------------------2---------------|
 |   |   |   |   |   |   |   |   |   |   |   |   |   |   |   |   |   |   |
L    1       1       3   1   2   1     4p2               1       4
     3       2                                           1       2
                                                                 3
                                                                 1
  
     II3                                 
[36]
E|---5-------------------------------|
B|---2-------------------------------|
G|---2-------------------------------|
D|---------6/7-----------------------|
A|---0-------------------------------|
D|---------6/7-----------------------|
 |   |   |   |   |   |   |   |   |   |   
L    4       4                           
     1       3                           
     1                                   

Part B (once)
Key Signature: D Major

[37]
E||----------------------2---3---5---|---7-------5-------5-----7/10------|
B||----------2---3---5---------------|-----------7-------7---------------|
G||*-2---4---------------------------|-----------7-------7---------------|
D||*---------------------------------|-----------------------------------|
A||--0---------------0---------------|-----------------------------------|
D||----------------------------------|---0===============----------------|
 |   |   |   |   |   |   |   |   |   |   |   |   |   |   |   |   |   |   |
L    1   2   1   2   4   1   2   4       4       1       1       4
                                                 3       3
                                                 2       2

[39] VII5................                        VII3............
E|---10------9-------9-----9/12------|---12------10------10--------------|
B|-----------8-------8---------------|-----------------------------------|
G|-----------9-------9---------------|-----------11------11--------------|
D|-----------------------------------|-----------9-------9---------------|
A|---7====================-----------|---9===================------------|
D|-----------------------------------|-----------------------------------|
 |   |   |   |   |   |   |   |   |   |   |   |   |   |   |   |   |   |   |
L    4       4       4       4           4       2       2    
     1       2       2                   2       3       3
             3       3                           1       1

[41]                                                             X3......
E|---9-p-7---6---7---12-p10--9-------|---------------------------14-p10--|
B|---0---------------------------12--|-7/12------10------10--------------|
G|---0---------------0---------------|-----------11------11--------------|
D|-----------------------------------|-----------12------12--------------|
A|-----------------------------------|---0-------------------------------|
D|-----------------------------------|-----------------------------------|
 |   |   |   |   |   |   |   |   |   |   |   |   |   |   |   |   |   |   |
L    4   2   1   2   4   2   1   4       4       1       1       4   1
                                                 2       2
                                                 3       3

[43]                                             VII3.......
E|-------10------------------<12>----|-----------10----------------------|
B|---10----------10------------------|---3-------7-----------------------|
G|-----------11--------------<12>----|-----------7-----------------------|
D|-----------------------------------|---4-------0-----------------------|
A|---0---------------<12>------------|-----------------------------------|
D|-----------------------------------|---0-------------------------------|
 |   |   |   |   |   |   |   |   |   |   |   |   |   |   |   |   |   |   |
L    1   1   2   1   3       3           2       4
                             3           3       1
                                                 1
======
 Notes
======
3 parts. The Order of Play...
Part A twice with different endings
Part B twice
Part C twice with different endings
Part A once with 2nd ending
Part B once

Part A and B: Key Signature in D major  
Part C: Key Signature in G Major 

======
Legend
======
Right
p = pulgar = thumb
i = indice = index
m = medio = middle
a = anular = ring

Left
p = pull off
h = hammer on
/ = slide
= = suspend/hold Note
II2 = Barre at fret 2 bottom 2 strings
 ______  ending1
|1.
<12> harmonic (natural) at 12 fret
Добавлено: 01.06.2012
Другие материалы по этой песне:

Страница создана 24.02.2012
http://primanota.ru/francisco-tarrega/rosita-chords.htm
Привет, Гость.
Предлагаем пройти революционный курс по гитаре.
Подарок от PrimaNota.Ru, забирай!