PrimaNota.ru - самый крупный в мире бесплатный архив песенных текстов, аккордов, табулатур и нот


Francisco Tarrega - Preludo - таба, видео

Регистрация Запомнить меня
Войти через:  Facebook Google Twitter Vk Yandex Mail.ru

Francisco Tarrega - Preludo - таба, видео

Печатать
Просмотров: 112
Tuning: Standart

   S S  S  S S S  S S   S S S S S S S S   S S S S S S S S   S S S S S S S S
E--9h12-9----7h10-7---|-5h9-5p0-2h5-2---|-----------------|----------------|
B---------10--------9-|---------------3-|-2h5-2-----------|----------------|
G---------------------|-----------------|-------2-4h7-4---|-2h6-2----------|
D---------------------|-----------------|---------------6-|-------2-4h7-4--|
A---------------------|-----------------|-----------------|--------------5-|
E---------------------|-----------------|-----------------|----------------|

  S S S S S S S S    S S S S S S S S S S S S S S S S S S S S S S S S S S S S  S  S  S  S
E------------------|--------------------------------------------------------------9-11-12--|
B------------------|-------------------------------------------7-8-10----9-10-12-----------|
G------------------|---------------------------6-7-9-----6-7-9-------9-11------------------|
D------------------|---------2/4-6-7-----6-7-9-------7-9-----------------------------------|
A--4h7-4---2h5-2---|---2-4-5---------7-9---------------------------------------------------|
E--------5-------4-|-5---------------------------------------------------------------------|

     S S S S   S S S S  S  S S S   S S S S
E------9-8-9--10-7-6-7--9----------7-------|
B---10--------------------10-9-10----9-7-9-|
G------------------------------------------|
D------------------------------------------|
A---0--------------------------------------|
E----------------------------------0-------|

    S S S S  S S S S   S S S  S S S  S S    S S S S  S S S  S    S S S S
E---5p0---0--5p0-7p0-|-9p0----0-9p0-10p0-|-12p0-0-0-12p0-14p0-|-12p0-0-0---|
B----------------5---|-10-------10--12---|-14-------14---15---|-14---------|
G-------6------------|-------------------|--------------------|------------|
D--------------------|-----11------------|--------------------|------------|
A---0----------------|-0-----------------|-0------------------|-0----------|
E--------------------|-------------------|--------------------|------------|

   S E E S      W
E--4p2---0--|---5---|
B--3--------|---2---|
G-----------|-------|
D--2---2----|-------|
A-----------|---0---|
E-----------|-------|

Duration Legend
---------------
W - whole
H - half
Q - quarter
E - 8th
S - 16th
T - 32nd
X - 64th
. - note dotted
|-n-|  - n-tuplets


Tablature Legend
----------------
L - tied note
x - dead note
g - grace note
(n) - ghost note
> - accentuded note
NH - natural harmonic
AH - artificial harmonic
TH - tapped harmonic
SH - semi harmonic
PH - pitch harmonic
h - hammer on
p - pull off
b - bend
br - bendRelease
pb - preBend
pbr - preBendRelease
brb - bendReleaseBend
\n/ - tremolo bar dip
\n - tremolo bar dive
-/n - tremolo bar Release up
/n\ - tremolo bar inverted dip
/n - tremolo bar return
-\n - tremolo bar Release down
S - shift slide
s - legato slide
/ -  slide into from below or out of upwards
\ -  slide into from above or out of downwards
~ - vibrato
W - wide vibrato
tr - trill
TP - tremolo picking
T - tapping
S - slap
P - pop
< - fade in
^ - brush up
v - brush down
Добавлено: 24.03.2012
Другие материалы по этой песне:
  • Аккорды и текст

Страница создана 24.03.2012
http://primanota.ru/francisco-tarrega/preludo-chords.htm
Привет, Гость.
Предлагаем пройти революционный курс по гитаре.
Подарок от PrimaNota.Ru, забирай!