PrimaNota.ru - самый крупный в мире бесплатный архив песенных текстов, аккордов, табулатур и нот


Francisco Tarrega - Prelude Moderato In D Minor - таба, видео

Регистрация Запомнить меня
Войти через:  Facebook Google Twitter Vk Yandex Mail.ru

Francisco Tarrega - Prelude Moderato In D Minor - таба, видео

Печатать
Просмотров: 119
Уроки эстрадного вокала в Санкт-Петербурге
E-|---Song:-Prelude-(Moderato)-in-D-Minor----------|
A-|---Composer:-Francisco Tarrega------------------|
D-|---Transcription-by:Christian Liang-------------|
G-|---E-Mail:christian.liang@gmail.com-------------|   
B-|---http://www.classclef.com---------------------|
E-|---Enjoy!---------------------------------------|


Prelude (Moderato) in D Minor- Francisco Tarrega (1852-1909)


[1]

E|---10p-8---6-p-5---|---6-p-3---1-p-0---|-------------------|-------------------|
B|-------------------|-------------------|---3---------------|---3-------1-------|
G|-------------------|---0-------2-------|-------------------|---0-------3-------|
D|---0-------3-------|-------------------|---3---------------|-----------0---2---|
A|-------------------|-------------------|-------3---1---0---|---1---3-----------|
D|-------------------|-------------------|---0---------------|-------------------|
 |   |   |   |   |   |   |   |   |   |   |   |   |   |   |   |   |   |   |   |   |
L    4   2   4   3       4   1   1           4   2   1           4   3   1   2
             1                   2           3                   1       4
[5]
     I....               VI...                       VIII        I
E|-------1---5---8---|---6-------0-------|---------------10--|---1-------0-------|
B|---1---------------|---6-------8-------|---10------8-------|---1-------1-------|
G|---2---------------|---7-----------10--|---10------10------|---2-------0-------|
D|---3---------------|-------8-----------|-----------8-------|-------------------|
A|-------------------|-------------------|-------8-----------|-------3-------3---|
D|-------------------|-------------------|-------------------|-------------------|
 |   |   |   |   |   |   |   |   |   |   |   |   |   |   |   |   |   |   |   |   |
L    1   1   4   4       1   3   1   3       4   1   3   4       1   3   1   4
     2                   1                   3                   1
     3                   2                                       2

[9]

E|-------------------|---------------0---|-------------------|---------------0---|
B|---------------6---|-------------------|---------------3---|-------1---3-------|
G|---5---------------|---0---------------|---2-------0-------|---0-------3-------|
D|---7-------8-------|---8-------7-------|---3---------------|---2---------------|
A|---8---7---5-------|---7---5---4-------|---5---3---2-------|---3---------------|
D|-------------------|-------------------|-------------------|-------------------|
 |   |   |   |   |   |   |   |   |   |   |   |   |   |   |   |   |   |   |   |   |
L    1   2   4   2       4   1   4           1   3   2   4       2   1   4
     3       1           3       1           2                   3       3
     4                                       4

[13] >       >           >       >           >       >
     I....
E|---3-p-1---1-p-0---|---0---------------|-------------------|-------------------|
B|---1-------2-------|-------3---3-------|-------------------|---3==============-|
G|---2---------------|-----------2---5---|---5-p-3---2-p-0---|---2==============-|
D|-----------3-------|---3-------0-------|---0-------0-------|---3==============-|
A|-----------0-------|---1---------------|-----------1-------|---0==============-|
D|-------------------|-----------4-------|---5---------------|-------------------|
 |   |   |   |   |   |   |   |   |   |   |   |   |   |   |   |   |   |   |   |   |
L    4   1   1           3   4   2   4       4   1   2           4
     1       2           1       1           3       1           2
     2       3                   3                               3

[17]
             II......                                III.....    V
E|-------------------|-------------------|---0---------------|-------5---8---13--|
B|---3======-2======-|---3==============-|---3-------3---5---|---6---------------|
G|---3======-2======-|-------5---3---2---|---0---3---3-------|---5---------------|
D|---2======-5======-|---0==============-|-----------5-------|---7---------------|
A|---0======-0======-|-------------------|-----------3-------|---8---------------|
D|-------------------|---0==============-|-------------------|-------------------|
 |   |   |   |   |   |   |   |   |   |   |   |   |   |   |   |   |   |   |   |   |
L    4       1           2   4   1   1       2   1   3   4       2   1   4   4
     3       1                                                   1
     1       4                                                   3
                                                                 4
[21]
                                             I
E|---10------0-------|-------------------|---1-------0-------|-------------------|
B|-----------8-------|---10------11--3---|---1-------1-------|---------------6---|
G|---10--------------|---10------0-------|---2-------0-------|---5---------------|
D|-------8-------10--|-------------------|-------------------|---7-------3-------|
A|-------------------|---8---------------|-------3-------3---|---8---7---5-------|
D|-------------------|-------------------|-------------------|-------------------|
 |   |   |   |   |   |   |   |   |   |   |   |   |   |   |   |   |   |   |   |   |
L    4   1   1   3       4       4   4       1   3   1   4       1   2   1   4
     3                   3                   1                   3       3
                         1                   2                   4

[25]                                                             >       >
                                                                 I
E|---------------0---|-------------------|---------------0---|---3-p-1---1-p-0---|
B|-------------------|---------------3---|-------1---3-------|---1-------2-------|
G|---3---------------|---2-------0-------|---0-------3-------|---2---------------|
D|---5-------7-------|---3---------------|---2---------------|-----------3-------|
A|---7---5---4-------|---5---3---2-------|---3---------------|-----------0-------|
D|-------------------|-------------------|-------------------|-------------------|
 |   |   |   |   |   |   |   |   |   |   |   |   |   |   |   |   |   |   |   |   |
L    1   2   4           1   3   2   4       2   1   4           4   1   1
     3       1           2                   3       3           1       2
     4                   4                                       2       3
     
[29] >       >           >       >
                                                                         II......
E|---0---------------|-------------------|-------------------|-------------------|
B|-------3---3-------|-------------------|---3==============-|---3======-2======-|
G|-----------2---5---|---5---3---2---0---|---2==============-|---3======-2======-|
D|---3-------0-------|---0-------0-------|---3==============-|---2======-5======-|
A|---1---------------|-----------1-------|---0==============-|---0======-0======-|
D|-----------4-------|---5---------------|-------------------|-------------------|
 |   |   |   |   |   |   |   |   |   |   |   |   |   |   |   |   |   |   |   |   |
L    3   4   2   4       4   1   2           4                   4       1
     1       1           3       1           2                   3       1
             3                               3                   1       4

[33]
                                                                     II......
E|-------------------|---0-------0-------|-------------------|-------------------|
B|---3==============-|---3-------2-------|-------------------|-------------------|
G|-------5---3---2---|---0---3---2-------|-------------------|---3-------2-------|
D|---0==============-|-------------------|---0==============-|-------------------|
A|-------------------|---------------0---|-------3---1---0---|-----------4---0---|
D|---0==============-|-------------------|---0==============-|---5---2-----------|
 |   |   |   |   |   |   |   |   |   |   |   |   |   |   |   |   |   |   |   |   |
L    2   4   1   1       2   1   3               3   1           2   1   1
                                 4                               4       3

[37]    8va-----------------------------------------------------------------------

E|-------------------|--------------<12>-|--<13>-------------|-------------------|
B|-------------------|----------<15>-----|-------------------|-------------------|
G|-------------------|------<14>---------|----------<14>-----|-------------------|
D|---0------<12><14>-|--<15>-------------|-------------------|--<12>-------------|
A|------<12>---------|-------------------|-----------0-------|-------------------|
D|---0---------------|-------------------|-------------------|---0---------------|
 |   |   |   |   |   |   |   |   |   |   |   |   |   |   |   |   |   |   |   |   |                
L                2       3   2   3           1       2  
                  
Добавлено: 14.04.2012
Другие материалы по этой песне:
  • Аккорды и текст

Страница создана 14.04.2012
http://primanota.ru/francisco-tarrega/prelude-moderato-in-d-minor-chords.htm
Привет, Гость.
Предлагаем пройти революционный курс по гитаре.
Подарок от PrimaNota.Ru, забирай!