PrimaNota.ru - самый крупный в мире бесплатный архив песенных текстов, аккордов, табулатур и нот


Francisco Tarrega - Prelude 9 In A - таба, видео

Регистрация Запомнить меня
Войти через:  Facebook Google Twitter Vk Yandex Mail.ru

Francisco Tarrega - Prelude 9 In A - таба, видео

Печатать
Просмотров: 102
E-|---Song:-Prelude-in-A-Major---------------------|
A-|---Composer:-Francisco-Tarrega------------------|
D-|---Transcription-by:Christian Liang-------------|
G-|---E-Mail:christian.liang@gmail.com-------------|   
B-|---http://www.classclef.com---------------------|
E-|---Enjoy!---------------------------------------|

==========================================================================
               Prelude 9 in A Major by Francisco Tarrega
==========================================================================

Time Signature: 2/4
Key Signature: A Major

[1]
E|--9h-12-9--5--7h-10-7-----|--5h-7--5--0--2h-5--2-----|
B|-----------------------9--|-----------------------3--|
G|--------------------------|--------------------------|
D|--------------------------|--------------------------|
A|--------------------------|--------------------------|
E|--------------------------|--------------------------|
 |  |  |  |  |  |  |  |  |  |  |  |  |  |  |  |  |  |  |
L   1  4  1  1  1  4  1  3     1  4  1     1  4  1  2
R   a     m  i  a     m  i     a     m  i  a     m  i

[3] II3........ IV........     II4........
E|--------------------------|--------------------------|
B|--2h-5--2-----------------|--2h-5--2-----------------|
G|-----------2--4h-7--4-----|--------------------------|
D|-----------------------6--|-----------2--4h-7--4-----|
A|--------------------------|-----------------------5--|
E|--------------------------|--------------------------|
 |  |  |  |  |  |  |  |  |  |  |  |  |  |  |  |  |  |  |
L   1  4  1  1  1  4  1  3     1  4  1  1  1  4  1  2
R   a     m  i  a     m  i     a     m  i  a     m  i

[5]
E|--------------------------|--------------------------|
B|--------------------------|--------------------------|
G|--------------------------|--------------------------|
D|--------------------------|-----------------4--6--7--|
A|--4h-7--4--0--2h-5--2-----|--------4--5--7-----------|
E|-----------------------4--|--5h-7--------------------|
 |  |  |  |  |  |  |  |  |  |  |  |  |  |  |  |  |  |  |
L   1  4  1     1  4  1  3     2  4  1  2  4  1  3  4
R   a     m  i  a     m  i     m     i  m  i  m  i  m

[7]
E|--------------------------|--------------------------|
B|--------------------------|-----------------7--9--10-|
G|-----------------6--7--9--|--------6--7--9-----------|
D|--------6--7--9-----------|--7--9--------------------|
A|--7--9--------------------|--------------------------|
E|--------------------------|--------------------------|
 |  |  |  |  |  |  |  |  |  |  |  |  |  |  |  |  |  |  |
L   2  4  1  2  4  1  2  4     2  4  1  2  4  1  3  4
R   i  m  i  m  i  m  i  m

[9]
E|-----------------9--10-12-|-----9--8--9--10-7--6--7--|
B|--------9--10-12----------|--10----------------------|
G|--9--11-------------------|--------------------------|
D|--------------------------|--------------------------|
A|--------------------------|--0==========-------------|
E|--0===========------------|--------------------------|
 |  |  |  |  |  |  |  |  |  |  |  |  |  |  |  |  |  |  |
L   1  3  1  2  4  1  2  4     3  2  1  2  4  2  1  2
R                              i  m  i  m  a  m  i  m

[11]
E|--9--5--4--5--7--4--2--4--|--5p-0-----0--5p-0--7p-0--|
B|--------------------------|--------2-----------5-----|
G|--------------------------|--------------------------|
D|--------------------------|--------------------------|
A|--0===========------------|--0===========------------|
E|--------------0==========-|--------------------------|
 |  |  |  |  |  |  |  |  |  |  |  |  |  |  |  |  |  |  |
L   4  2  1  2  4  3  1  3     4     1     4     4
                                                 2
R   a  m  i  m  a  m  i  m     a     m  i  a

[13]
E|--9p-0-----0--9p-0--10p-0-|--12p0-----0--12p0--14p0--|
B|--10----------10----12----|--14----------14----15----|
G|--------------------------|--------------------------|
D|--------11----------------|--------14----------------|
A|--0===========------------|--0============-----------|
E|--------------------------|--------------------------|
 |  |  |  |  |  |  |  |  |  |  |  |  |  |  |  |  |  |  |
L   1     3     1     1        1     2     1     2
    2           2     3        3           3     3

[15]            II4.........
E|--12p0-----0--4p-2-----0--|--5==========-------------|
B|--14----------3-----------|--2==========-------------|
G|--------------------------|--------------------------|
D|--------14----------2-----|--------------------------|
A|--0===========------------|--0==========-------------|
E|--------------0==========-|--------------------------|
 |  |  |  |  |  |  |  |  |  |  |  |  |  |  |  |  |  |  |
L   1     2     4  1  1        1
    3           2              4
Добавлено: 11.05.2012
Другие материалы по этой песне:

Страница создана 27.04.2012
http://primanota.ru/francisco-tarrega/prelude-9-in-a-chords.htm
Привет, Гость.
Предлагаем пройти революционный курс по гитаре.
Подарок от PrimaNota.Ru, забирай!