PrimaNota.ru - самый крупный в мире бесплатный архив песенных текстов, аккордов, табулатур и нот


Francisco Tarrega - Prelude 8 In A Major - таба, видео

Регистрация Запомнить меня
Войти через:  Facebook Google Twitter Vk Yandex Mail.ru

Francisco Tarrega - Prelude 8 In A Major - таба, видео

Печатать
Просмотров: 182
Уроки эстрадного вокала в Санкт-Петербурге
E-|---Song:-Prelude-in-A-Major---------------------|
A-|---Composer:-Francisco Tarrega------------------|
D-|---Transcription-by:Christian Liang-------------|
G-|---E-Mail:christian.liang@gmail.com-------------|
B-|---http://www.classclef.com---------------------|
E-|---Enjoy!---------------------------------------|


Prelude in A Major- Francisco Tarrega (1852-1909)

Tips
Yet another Tarrega pieces that uses the whole neck. Although there are only
2 barre chords, be careful landing the other 26 chords. Each note should have
equal loudness and must be played at a constant tempo-no matter how fast or slow.
This song is more demanding on the left hand (chords). The right plays (pim)
all the way. Prelude in A Major is played once. 8 bars in total. Although
Short in length, there are a 28 chords to play. There's a repeat of the
first chord (A), other than that the song is a series of arpeggio progression.
The notes should be keep at constant tempo and are triplet form


[1]

E|-----------------0-----2-|-----0-----3-----2-----5-|-----4-----7-----5-----9-|
B|---------------2-----3---|---2-----2-----3-----4---|---5-----6-----7-----8---|
G|-------------2-----1-----|-2-----3-----4-----5-----|-6-----------------------|
D|-------------------------|-------------------------|-------6-----7-----8-----|
A|-------------------------|-------------------------|-------------------------|
E|-------------------------|-------------------------|-------------------------|
   | | | | | | | | | | | |   | | | | | | | | | | | |   | | | | | | | | | | | |
LH             2 3   1 3 2   2 3   3 2 4 3 2 1 3 2 4   3 2 1 1 2 4 3 4 1 1 2 4
RH             p i m p i m   p i m p i m p i m p i m   p i m p i m p i m p i m

[3]
                                   VI.........
E|----10----11-----12----10|-----9----7------5-----3-|-----2-----------------2-|
B|--7-----10-----10--------|---7-----6-----7-----2---|---3-------5-----3---1---|
G|---------------------10--|-------------------------|---------3-----4---------|
D|-9----10-----11----9-----|-7-----------4-----------|-------------------1-----|
A|-------------------------|-------4-----------1-----|-2-----4-----5-----------|
E|-------------------------|-------------------------|-------------------------|
   | | | | | | | | | | | |   | | | | | | | | | | | |   | | | | | | | | | | | |

R  3 1 4 1 2 4 3 2 4 1 3 4   1 2 4 1 3 4 1 4 2 1 2 4   1 2 1 3 2 4 3 2 1 1 2 4

L  p i m p i m p i m p i m   p i m p i m p i m p i m   p i m p i m p i m p i m


[6]                                                                                 V

E|-----0-----5-----5-----5-|-5-----------9-----7-----|-5-----------------------|
B|---2-----4---------------|-5-----------9-----------|-5-----------------------|
G|---------------6-----5---|-6-----------7-----------|-6-----------------------|
D|-2-----4-----------------|-------------------------|-------------------------|
A|-------------7-----6-----|-7-----------------------|-0-----------------------|
E|-------------------------|-------------0-----------|-------------------------|
   | | | | | | | | | | | |   | | | | | | | | | | | |   | | | | | | | | | | | |
L  1 2   1 2 4 3 2 1 2 1 1   1,1,2,3     1,3,4 2       1,1,2
R  p i m p i m p i m p i m   p,i,m,a     p,i,m,a       p,i,m,a
Добавлено: 20.04.2012
Другие материалы по этой песне:

Страница создана 20.04.2012
http://primanota.ru/francisco-tarrega/prelude-8-in-a-major-chords.htm
Привет, Гость.
Предлагаем пройти революционный курс по гитаре.
Подарок от PrimaNota.Ru, забирай!