PrimaNota.ru - самый крупный в мире бесплатный архив песенных текстов, аккордов, табулатур и нот


Francisco Tarrega - Prelude 5 In E Major - таба, видео

Регистрация Запомнить меня
Войти через:  Facebook Google Twitter Vk Yandex Mail.ru

Francisco Tarrega - Prelude 5 In E Major - таба, видео

Печатать
Просмотров: 254
E-|---Song:-Prelude-5-in-E-Major-------------------|
A-|---Composer:-Fernando-Sor-----------------------|
D-|---Transcription-by:Christian Liang-------------|
G-|---E-Mail:christian.liang@gmail.com-------------|   
B-|---http://www.classclef.com---------------------|
E-|---Enjoy!---------------------------------------|


Prelude 5 in E Major by Francisco Tarrega (1852-1909)


Time Signature 3/4


[1]            >                                    >
               II...........                        II...........
E|------------------------------------|------------------------------------|
B|----------0--2--------4--5--------7-|----------0--2--------4--5--------7-|
G|-1-----------2----------------------|-1-----------2----------------------|
D|------------------------------------|------------------------------------|
A|-2-----------2----------------------|-2-----------2----------------------|
E|-0----------------------------------|-0----------------------------------|
 | |  |  |  |  |  |  |  |  |  |  |  | | |  |  |  |  |  |  |  |  |  |  |  | |
L  1           1        3  4        4   1           1        3  4        4
   2           1                        2           1
               1                                    1

[3]

E|-4--------5--7=====================-|-9--------11-12-------12-11-------9-|
B|-5--------7--9=====================-|-10-------12-14-------14-12-------10|
G|------------------------------------|------------------------------------|
D|-6--------7--9=====================-|-11-------13-14-------14-13-------11|
A|------------------------------------|-0=================================-|
E|-0-----------------------0----------|------------------------------------|
 | |  |  |  |  |  |  |  |  |  |  |  | | |  |  |  |  |  |  |  |  |  |  |  | |
L  1        1  1                        1        1  1        1  1        1
   2        4  4                        2        2  4        4  2        2
   3        3  3                        3        3  3        3  3        3

[5]
                                                 VII...........IX..........
E|-9-h11----7--7--------4--7----------|----------------------------------12|
B|-10-------9--9--------5--9----------|----------7--7--------10-9----------|
G|------------------------------------|----------8--8-----------9----------|
D|-11-------9--9--------6--9----------|------------------------------------|
A|------------------------------------|----------9--9-----------11---------|
E|-0=================================-|-2/7====================-9----------|
 | |  |  |  |  |  |  |  |  |  |  |  | | |  |  |  |  |  |  |  |  |  |  |  | |
L  1  4     1  1        1  1            1        1  1        4  1        4
   2        4  4        2  4                     2  2           1
   3        3  3        3  3                     3  3           3
                                                                1

[7]
            II........................
E|----------------------------------2-|------------------------------------|
B|----------2--2--------5--4----------|-2--------0--2--------0--2--------0-|
G|----------3--3-----------4----------|-2-----------2-----------2----------|
D|-------------------------4----------|-1-----------2-----------4----------|
A|----------4--4-----------2----------|------------------------------------|
E|-2=================================-|------------------------------------|
 | |  |  |  |  |  |  |  |  |  |  |  | | |  |  |  |  |  |  |  |  |  |  |  | |
L  1        1  1        4  4        1   4           4           2
            2  2           3            3           3           1
            3  3           2            1           2           4
                           1
[9]

E|------------------------------------|------------------------------------|
B|4/14------12-10-------7--4----------|------------------------------------|
G|----------------------------------6-|-4--------3--2----------------------|
D|------------------------------------|----------------------4--1----------|
A|------------------------------------|----------------------------------4-|
E|------------------------------------|------------------------------------|
 | |  |  |  |  |  |  |  |  |  |  |  | | |  |  |  |  |  |  |  |  |  |  |  | |
L  4        4  2        4  1        3   1        3  2        4  1        4

[11]           >                                    >
               II...........                        II...........
E|------------------------------------|------------------------------------|
B|----------0--2--------4--5--------7-|----------0--2--------4--5--------7-|
G|-1-----------2----------------------|-1-----------2----------------------|
D|------------------------------------|------------------------------------|
A|-2-----------2----------------------|-2-----------2----------------------|
E|-0----------------------------------|-0----------------------------------|
 | |  |  |  |  |  |  |  |  |  |  |  | | |  |  |  |  |  |  |  |  |  |  |  | |
L  1           1        3  4        4   1           1        3  4        4
   2           1                        2           1
               1                                    1

[13]

E|-4--------5--7=====================-|---------------------<12>10-------8-|
B|-5--------7--9=====================-|-8--------10<12>---------7----------|
G|------------------------------------|-9--------11<12>--------------------|
D|-6--------7--9=====================-|-------------------------0----------|
A|------------------------------------|-7----------------------------------|
E|-0-----------------------0----------|------------------------------------|
 | |  |  |  |  |  |  |  |  |  |  |  | | |  |  |  |  |  |  |  |  |  |  |  | |
L  1        1  1                        2        2  4        4  4        2  
   2        4  4                        3        3  4           1
   3        3  3                        1

[15]
                           V                                    >
E|-7----------------------------------|----------------------0-------------|
B|-8-----7/10--8--------7--5----------|-------------0--------------------0-|
G|-0-----------------------5----------|-------------------------6h8p6------|
D|----------------------7-------------|----------6-------------------------|
A|------------------------------------|-------------------------8----------|
E|----------------------------------6-|-7======================-7----------|
 | |  |  |  |  |  |  |  |  |  |  |  | | |  |  |  |  |  |  |  |  |  |  |  | |
L  2     4     2        4  1        2   2        1              1h4p1
   3                    3  1                                    3
                                                                2
[17]
                                                 IV........................
E|------------------------------------|----------------------7-------------|
B|-------------------------14---------|-5--------4--4-----------5----------|
G|-------------8----/---14------------|-6--------4--4-----------4----------|
D|------------------------------------|-7======================-6----------|
A|----------9-------------------------|------------------------------------|
E|-6h7h9p7----------------------------|------------------------------------|
 | |  |  |  |  |  |  |  |  |  |  |  | | |  |  |  |  |  |  |  |  |  |  |  | |
L  1h2h4p2  4  3        3  4            1        1  1        4  1
                                        2        1  1           2
                                        3                       3

[19]
   II......................                         >
E|------------------------------------|-0----------------------------------|
B|-4---------2-2-----------0----------|------------------------------------|
G|-4---------2-2-----------2----------|-1-----------0=====================-|
D|-2---------2-4-----------1----------|-------------2--------------------0-|
A|-0--------------------0--2--------2-|-2--------2--3--------2--3----------|
E|------------------------------------|-0----------------------------------|
 | |  |  |  |  |  |  |  |  |  |  |  | | |  |  |  |  |  |  |  |  |  |  |  | |
L  4        1  1           3        2   1        2  3        2  4
   3        1  1           1            2           4
   1        1  3           2

[21]

E|------------------------------------|----------------------0--4--------7-|
B|------------------------------------|------------------------------------|
G|-1-----------0=====================-|-1--------1/-4----------------------|
D|-2-----------2--------------------0-|-2=================================-|
A|-2--------2--3--------2--3----------|-2=================================-|
E|-0----------------------------------|-0=================================-|
 | |  |  |  |  |  |  |  |  |  |  |  | | |  |  |  |  |  |  |  |  |  |  |  | |
L  1        2  3        2  4            1        1              1        4  
   3           4                        3
   2                                    2

[23]
                                                       8 (octave)
E|-8=============-0-------------------|-0=================================-|
B|-5=============-10------------------|-9=================================-|
G|------------------------------------|------------------------------------|
D|-7=============-10------------------|-9=================================-|
A|-0=============-0-------------------|-7=================================-|
E|------------------------------------|---------------<12>================-|
 | |  |  |  |  |  |  |  |  |  |  |  | | |  |  |  |  |  |  |  |  |  |  |  | |
L  4              4                     4              
   1              3                     3
   3                                    1

Добавлено: 12.07.2012
Другие материалы по этой песне:
  • Аккорды и текст

Страница создана 12.07.2012
http://primanota.ru/francisco-tarrega/prelude-5-in-e-major-chords.htm
Привет, Гость.
Предлагаем пройти революционный курс по гитаре.
Подарок от PrimaNota.Ru, забирай!