PrimaNota.ru - самый крупный в мире бесплатный архив песенных текстов, аккордов, табулатур и нот


Francisco Tarrega - Prelude 4 In E Major - таба, видео

Регистрация Запомнить меня
Войти через:  Facebook Google Twitter Vk Yandex Mail.ru

Francisco Tarrega - Prelude 4 In E Major - таба, видео

Печатать
Просмотров: 120
E-|---Song:-Prelude-4-in-E-Major-------------------|
A-|---Composer:-Francisco-Tarrega------------------|
D-|---Transcription-by:Christian Liang-------------|
G-|---E-Mail:christian.liang@gmail.com-------------|   
B-|---http://www.classclef.com---------------------|
E-|---Enjoy!---------------------------------------|

==========================================================================
           Prelude 4 in E Major by Francisco Tarrega (1911–1979)
==========================================================================

Tempo: Allegro 
Key: E Major
Time Signarture: 3/8


          sempre staccato                     IX................
[1]
E|--------4-----5-----|--7-----9-----7-----|--12----11----9-----|
B|--------5-----7-----|--9-----10----9-----|--9-----12----10----|
G|--------------------|--9-----9-----9-----|--9-----9-----9-----|
D|--------------------|--------------------|--------------------|
A|--------------------|--------------------|--------------------|
E|--------------------|--------------------|--------------------|
 |  |  |  |  |  |  |  |  |  |  |  |  |  |  |  |  |  |  |  |  |  |
R         m     m        m     m     m        m     m     m
          i     i        i     i     i        i     i     i
                         p     p     p        p     p     p

L         1     1        1     3     1        4     3     1
          2     3        3     4     3        1     4     2
                         2     2     2        1     1     1

    VII...IV..........                             
[4] 
E|--7-----4-----------|--------------------|--4-----5-----4-----|
B|--9-----5-----5-----|--0-----------------|--0-----0-----0-----|
G|--9-----4-----4-----|--1-----------------|--------------------|
D|--------------6-----|--------------------|--2-----1-----2-----|
A|--------------------|--------------2-----|--------------------|
E|--------------------|--0-----4-----------|--------------------|
 |  |  |  |  |  |  |  |  |  |  |  |  |  |  |  |  |  |  |  |  |  |
R   m     m     m        m     p     p        m     m     m
    i     i     i        i                    i     i     i
    p     p     p        p                    p     p     p

L   1     1     2        1     4     2        4     4     4
    4     2     1                             2     1     1
    3     1     3

    IV................   II........................
[7]
E|--7-----5-----4-----|--2-----4-----2-----|--------4-----5-----|
B|--5-----7-----5-----|--4-----5-----4-----|--------5-----7-----|
G|--------4-----4-----|--------4-----4-----|--------------------|
D|--6-----------------|--------------------|--------------------|
A|--------------------|--2-----------------|--2-----------------|
E|--------------------|--------------------|--------------------|
 |  |  |  |  |  |  |  |  |  |  |  |  |  |  |  |  |  |  |  |  |  |
R   m     m     m        m     m     m        p     m     m
    i     i     i        i     i     i              i     i
    p     p     p        p     p     p              

L   4     1     1        1     3     1        1     1     1
    2     2     2        4     4     4              2     3
    3     4     1        1     2     3

                         IX................   VII...VI....IV....
[10]
E|--7-----9-----7-----|--12----11----9-----|--7-----9-----4-----|
B|--9-----10----9-----|--9-----12----10----|--9-----6-----6-----|
G|--9-----9-----9-----|--9-----9-----9-----|--9-----6-----------|
D|--------------------|--------------------|--------------------|
A|--------------------|--------------------|--------------4-----|
E|--------------------|--------------------|--------------------|
 |  |  |  |  |  |  |  |  |  |  |  |  |  |  |  |  |  |  |  |  |  |
R   m     m     m        m     m     m        m     m     m
    i     i     i        i     i     i        i     i     i
    p     p     p        p     p     p        p     p     p

L   1     3     1        4     3     1        1     1     2
    3     4     3        1     4     2        4     2     1
    2     2     2        1     1     1        3     1     3

    IV..........II..................          II rit. poco a poco
[13]                    
E|--5-----7-----2-----|--4-----2-----0-----|--5-----------------|
B|--7-----4-----4-----|--5-----3-----2-----|--2-----------------|
G|--------4-----------|--------------------|--------------------|
D|--4-----------------|--2-----------------|--------------------|
A|--------------2-----|--------------0-----|--------------0-----|
E|--------------------|--------4-----------|--2-----4-----------|
 |  |  |  |  |  |  |  |  |  |  |  |  |  |  |  |  |  |  |  |  |  |
R   m     m     m        m     m     m        m     p     p
    i     i     i        i     i     i        i          
    p     p     p        p     p     p        p     

L   2     4     1        3     1     2        4     2
    4     1     3        4     2              1
    1     1     1        1     3              1

                               a tempo        II................
[16]
E|--------------------|--0-----------0-----|--2-----4-----2-----|
B|--4-----------------|--------4-----2-----|--4-----5-----4-----|
G|--2-----------------|--1-----4-----------|--------4-----4-----|
D|--------------------|--------------------|--------------------|
A|--2--6-p4-----2-----|--------------------|--2-----------------|
E|--------------------|--0-----------------|--------------------|
 |  |  |  |  |  |  |  |  |  |  |  |  |  |  |  |  |  |  |  |  |  |
R   m  p        p        a     m     a        m     m     m
    i                    i     i     m        i     i     i
    p                    p                    p     p     p

L   3  4  2     2        1     4     1        1     3     1
    1                          3              3     4     3
                                              1     2     4

    VII...XI....XII...   XI....VII...               IV..........
[19]
E|--7-----11-14p12----|--11----7-----0-----|--------------------|
B|--7-----12----12----|--12----7-----9-----|--7-----4--7p-5-----|
G|--8-----11----13----|--11----8-----------|--8-----4-----4-----|
D|--------------------|--------------9-----|--9-----4-----6-----|
A|--------------------|--------------------|--------------------|
E|--------------------|--------------------|--------------------|
 |  |  |  |  |  |  |  |  |  |  |  |  |  |  |  |  |  |  |  |  |  |
R   m     m  m           m     m     m        m     m  m
    i     i     i        i     i     i        i     i     i
    p     p     p        p     p     p        p     p     p

L   1     1  3  1        1     1     4        1     1  3  2
    1     2     1        2     1     3        2     1     1
    2     1     2        1     2              3     1     3

     .....                           IV....   II    rit.
[22]
E|--------------------|--------------------|--2-----0-----------|
B|--4-----0-----0-----|--0-----------4-----|--4-----2-----2-----|
G|--4-----------------|--------6-----4-----|--------------3-----|
D|--4-----1-----2-----|--4-----6-----4-----|--------4-----4-----|
A|--------2-----4-----|--6-----7-----------|--------------------|
E|--------------------|--------------------|--2-----------------|
 |  |  |  |  |  |  |  |  |  |  |  |  |  |  |  |  |  |  |  |  |  |
R   m     m     m        m     m     m        a     a     m
    i     i     i        i     i     i        m     m     i
    p     p     p        p     p     p        p     p     p

L   1     1     1        1     2     1        1     1     1
    1     2     3        3     1     1        4     3     2
    1                          3     1        1           3

    ten.                 a tempo
                         II................   VII...XI....XII
[25]                     
E|--------------------|--2-----4-----2-----|--7-----11-14p12----|
B|--------------------|--4-----5-----4-----|--7-----12----12----|
G|--------------------|--------4-----4-----|--8-----11----13----|
D|--4-----2-----------|--------------------|--------------------|
A|--------------4-----|--2-----------------|--------------------|
E|--------------------|--------------------|--------------------|
 |  |  |  |  |  |  |  |  |  |  |  |  |  |  |  |  |  |  |  |  |  |
R   p     p     p        m     m     m        m     m  m   
                         i     i     i        i     i     i
                         p     p     p        p     p     p

L   3     1     3        1     1     1        1     1  3  1
                         3     2     4        1     2     1
                         1     1     3        2     1     2

    XI....                           VII............IV..........
[28]
E|--11----14----12----|--12----11----7-----|--7-----------------|
B|--12----------------|--------------------|--------4-----5-----|
G|--11----14----13----|--12----11----7-----|--8-----4-----6-----|
D|--------10----11----|--8-----9-----------|--------4-----4-----|
A|--------------------|--------------8-----|--9-----------------|
E|--------------------|--------------------|--------------------|
 |  |  |  |  |  |  |  |  |  |  |  |  |  |  |  |  |  |  |  |  |  |
R   m     m     m        m     m     m        m     m     m
    i     i     i        i     i     i        i     i     i
    p     p     p        p     p     p        p     p     p   

L   1     4     2        4     4     1        1     1     2
    2     3     3        3     3     1        2     1     1
    1     1     1        1     1     2        3     1     3

    rit.                                      a tempo
    II....IV..........                        VII...
[31]
E|--2-----4-----6-----|--9-----------------|--7-----4-----5-----|
B|--4-----5-----7-----|--------------------|--------5-----7-----|
G|--------------------|--9-----------------|--8-----------------|
D|--4-----4-----4-----|--------8-----------|--------------------|
A|--------------------|--------------9-----|--------------------|
E|--------------------|--------------------|--7-----------------|
 |  |  |  |  |  |  |  |  |  |  |  |  |  |  |  |  |  |  |  |  |  |
R   m     m     m        m     p     p        m     m     m
    i     i     i        i                    i     i     i
    p     p     p                             p     

L   1     3     3        4     1     2        1     1     1
    3     4     4        3                    2     2     3
    1     2     1                             1

                         IX................   VII...IV..........
[34]
E|--7-----9-----7-----|--12----11----9-----|--7-----4-----------|
B|--9-----10----9-----|--9-----12----10----|--9-----5-----5-----|
G|--9-----9-----9-----|--9-----9-----9-----|--9-----4-----4-----|
D|--------------------|--------------------|--------------6-----|
A|--------------------|--------------------|--------------------|
E|--------------------|--------------------|--------------------|
 |  |  |  |  |  |  |  |  |  |  |  |  |  |  |  |  |  |  |  |  |  |
R   m     m     m        m     m     m        m     m     m
    i     i     i        i     i     i        i     i     i
    p     p     p        p     p     p        p     p     p

L   1     3     1        4     3     1        1     1     2
    3     4     3        1     4     2        4     2     1
    2     2     2        1     1     1        3     1     3

                                              IV................
[37]
E|--------------------|--4-----5-----4-----|--7-----5-----4-----|
B|--0-----------------|--0-----0-----0-----|--5-----7-----5-----|
G|--1-----------------|--------------------|--------4-----4-----|
D|--------------------|--2-----1-----2-----|--6-----------------|
A|--------------2-----|--------------------|--------------------|
E|--0-----4-----------|--------------------|--------------------|
 |  |  |  |  |  |  |  |  |  |  |  |  |  |  |  |  |  |  |  |  |  |
R   m     p     p        m     m     m        m     m     m
    i                    i     i     i        i     i     i
    p                    p     p     p        p     p     p

L   1     4     2        4     4     4        4     2     1
                         2     1     1        2     4     2
                                              3     1     1

    II........................                   
[40]
E|--2-----4-----2-----|--------4-----5-----|--7-----9-----7-----|
B|--4-----5-----4-----|--------5-----7-----|--9-----10----9-----|
G|--------4-----4-----|--------------------|--9-----9-----9-----|
D|--------------------|--------------------|--------------------|
A|--2-----------------|--2-----------------|--------------------|
E|--------------------|--------------------|--------------------|
 |  |  |  |  |  |  |  |  |  |  |  |  |  |  |  |  |  |  |  |  |  |
R   m     m     m        p     m     m        m     m     m
    i     i     i              i     i        i     i     i
    p     p     p                             p     p     p

L   1     3     1        1     1     1        1     3     1
    4     4     4              2     3        3     4     3
    1     2     3                             2     2     2

    IX................   VII...VI....IV....   IV..........II....
                                                         
[43]
E|--12----11----9-----|--7-----9-----4-----|--5-----7-----2-----|
B|--9-----12----10----|--9-----6-----6-----|--7-----4-----4-----|
G|--9-----9-----9-----|--9-----6-----------|--------4-----------|
D|--------------------|--------------------|--4-----------------|
A|--------------------|--------------4-----|--------------2-----|
E|--------------------|--------------------|--------------------|
 |  |  |  |  |  |  |  |  |  |  |  |  |  |  |  |  |  |  |  |  |  |
R   m     m     m        m     m     m        m     m     m
    i     i     i        i     i     i        i     i     i
    p     p     p        p     p     p        p     p     p

L   4     3     1        1     4     1        2     4     1
    1     4     2        4     1     3        4     1     3
    1     1     1        3     1     1        1     1     1
 
    II..........         II.......            II.......
    rit. poco a poco
[46]
E|--4-----2-----0-----|--5========---------|--------------------|
B|--5-----3-----2-----|--2========---------|--4========---------|
G|--------------------|--------------------|--2========---------|
D|--2-----------------|--------------------|--------------------|
A|--------------0-----|--------------0-----|--2--6p-4-----2-----|
E|--------4-----------|--2-----4-----------|--------------------|
 |  |  |  |  |  |  |  |  |  |  |  |  |  |  |  |  |  |  |  |  |  |
R   m     m     m        m     p     p        m  p        p
    i     i     i        i                    i         
    p     p     p        p                    p          

L   3     1     2        4     2              3  4  2     2
    4     2              1                    1
    1     3              1                    1

[49]
E|--0========---------|
B|--------------------|
G|--1========---------|
D|--------------------|
A|--------------------|
E|--0========---------|
 |  |  |  |  |  |  |  | 
R   a
    i
    p

L   1


======
Legend
======
Right
p = pulgar = thumb
i = indice = index
m = medio = middle
a = anular = ring

Left
p = pull off
h = hammer on
/ = slide
= = suspend/hold Note
II = Barre at fret 2 

=====
Terms
=====
sempre staccato- always detached
Ritenuto, rit. - Hold back 
poco a poco - little by little
A tempo - Resume normal speed
Ten. Tenuto - Hold 

------------------
www.chrisliang.com
------------------
Добавлено: 24.03.2012
Другие материалы по этой песне:

Страница создана 17.03.2012
http://primanota.ru/francisco-tarrega/prelude-4-in-e-major-chords.htm
Привет, Гость.
Предлагаем пройти революционный курс по гитаре.
Подарок от PrimaNota.Ru, забирай!