PrimaNota.ru - самый крупный в мире бесплатный архив песенных текстов, аккордов, табулатур и нот


Francisco Tarrega - Marieta - таба, видео

Регистрация Запомнить меня
Войти через:  Facebook Google Twitter Vk Yandex Mail.ru

Francisco Tarrega - Marieta - таба, видео

Печатать
Просмотров: 163
E-|---Song:-Marieta(Mazurka)-----------------------|
A-|---Composer:-Francisco Tarrega------------------|
D-|---Transcription-by:Christian Liang-------------|
G-|---E-Mail:christian.liang@gmail.com-------------|
B-|---http://www.classclef.com---------------------|
E-|---Enjoy!---------------------------------------|


Marieta (Mazurka) by Francisco Tarrega (1852-1909)


Legend
------
 |  = triplet
h  = hammer-on
p  = pull off
/  = slide up/down
[12] = harmonic (example at 12 fret)
= = Suspend/hold note


Part A

		  [1]    V......
E||--------------|-------------------|-------------------8-|
B||--1-/-5-----6-|--6--------5-5---4-|--4------4h5h6p5-----|
G||*-------------|-------5-----5-----|-------5-------------|
D||*-------------|-------7-----7-----|-------7-------------|
A||--------------|--0===============-|--0=================-|
E||--------------|-------------------|---------------------|


L    1         2    2    1   1 1   1    1    2 1 2 3 2   4
                         3     1             4
                               3
[3]  IV.......

E|--8-------7--6--7-\-12---------------------|-------------------------|
B|-------5----------|-------------10-10---11-|-11======-9h10h11p10-\-2-|
G|-------4-----7----|--------9-------9-------|-------9-----------------|
D|------------------|--------10------10------|-------11----------------|
A|------------------|-0=====================-|-10================------|
E|--4=========-0----|------------------------|-------------------------|

L   4    2  4  2  4   4      1    3  3    4    4     1  1  2  3  2   2
    1    1     3             2       1         2     3
                                     2


[6]
E|-0---------------------|--------------------------|
B|------------3-------0--|--1--3p1p0h1h3p1--0-------|
G|---------2------2------|-----------------------2--|
D|-3=============-0------|--2==============-1-------|
A|-----------------------|--------------------------|
E|----------------1------|--0==============-2-------|


L  3       2  4   2         1  4 1   1 4 1  2    4
                  1         2               3

[8]                                V...............................

E|-------0-[12]----------|---------------------|------------------------|
B|-----0-----------------|---------------------|--------7---------------|
G|-----------------------|---------5-----5-----|--------5---------------|
D|---2-------------------|---------7-----7-----|--------7------------10-|
A|-------------3-\-7---8-|--8---------7--7-\-6-|-6=========-6h7h8p7-----|
E|-4---------------------|--5=============-----|-5==================----|

L  3  1  1     3       4    4      1     1       2      4   1 2 3 2  4
                            1      3  2  3       1      1
                                         2              3

[11]
E|--------0-----0----|------------0------------|------0--------------|
B|--------9-----9----|------------13-----------|------8--------------|
G|-------------------|-------------------------|---------------------|
D|-10--------9--8--9-\-14-14============-7---8-|-8=======6h7h8p7-----|
A|-------------------|-0================-------|-------------------4-|
E|-0================-|-------------------------|-9=============------|


L  4      3  2  3  2       2      1      1   1   1   2   1 2 3 2   1
                2                                3

[14]                                         II.....

E|-------------------|--0===========------|-----------------||
B|-----6-------3-----|--------------------|-----------------||
G|-------------------|--2------------1----|--2-------------*||
D|-----7----0--3-----|---------------0----|--2------[7]----*||
A|-7-----------3\2---|--3-2h3h5p3----2----|--3------[7]-----||
E|-------------------|--0===========-0----|--5--------------||

L  3   2       4 2      1 1 2 4 2    1       1       1
       4       3        2            2       1       1
               2                             2
                                             4

Part B

        V...........   VII........  V........
[1]
E|---------------------7h-9p-7----|---------5-------10h-12p-10-----|
B|-----------5--5--7---7----------|------5-----7-------------------|
G|*----------6-----7---7----------|------6-----7----11-------------|
D|*-------------------------------|--------------------------------|
A|--3-\-7=============-0----------|-7==============-0--------------|
E|--1-\-5=============------------|-5==============----------------|

R   p        m  m  m   a            p    m  a  m    a
             i     i   m                 i     i    i
                       i                            p

L   1        1  1  4   1  3  1      1    1  1  4    1   4   1
    3        2     3   1            3    2     3    2
                       1

[]            VII............................

E|------12-0-----9--7-----7-----|-----7-----0-----------------|
B|--10--------7--------7----10--|--9-----9--------------------|
G|------------7--------8--------|--9--------------------------|
D|--11--------------------------|-----------------------------|
A|------------------------------|--------------9--7-----------|
E|------------------------------|-------------------10--9--7--|
    |  |  |  |  |  |  |  |  |      |  |  |  |  |  |  |  |  |
L   2  4     1  4  1  1  1  4      4  1  4     2  1  4  3  1
    3        1        2            3


        V...........   VII...... V........
[5]
E|---------------------7h9p7---|-------5-----10h12p10-12-14-|
B|-----------5--5--7---7-------|----5-----7-----------------|
G|-----------6-----7---7-------|----6-----7--12-------------|
D|-----------------------------|----------------------------|
A|--3-\-7=============-0-------|-7==========-0--------------|
E|--1-\-5=============---------|-5==========----------------|
                                                    |  |  |

R   p        m  m  m   a        p   m  a  m   a
             i     i   m            i     i   i
                       i                      p

L   1        1  1  4   1 3 1     1  1  1  4   1  3  1  3  4
    3        2     3   1         3  2     3   2
                       1


[]  IX........                        II.....II....       II...........
			              ending1          ending2 back to A
E|--12p9-----0-------------------|-----------5------||-----------------|
B|--------10----2--------5p-3----|-----------2-----*||-----------1-/-5-|
G|-----------------2-----------1-|----2------2------||----2------------|
D|--------------------4----------|----2------2-----*||----2------------|
A|-------------------------------|----4------0------||----4------------|
E|--0-----------------0----------|----5-------------||----5------------|
    |  |  |  |  |  |  |  |  |  |
L   4  1   2    2  1  3  4  2  1      1      4            1      1
                                      1      1            1
                                      3      1            3
                                      4      1            4


Tips
----


Lento (slow). 3/4 Time Signature. 24 Bars with 2 parts. Play as AABBA .
Part A: Lots of slides and half step hammer ons/pull offs. 2 harmonics
which marks the end of each passage.
Part B: More difficult with more barred chords. Some parts played in
triplets (marked as "|" in my tab). Bar[1],[2],[5],[6] strum top 2
strings downwards as you slide the chord.
Добавлено: 08.06.2012
Другие материалы по этой песне:

Страница создана 02.04.2012
http://primanota.ru/francisco-tarrega/marieta-chords.htm
Привет, Гость.
Предлагаем пройти революционный курс по гитаре.
Подарок от PrimaNota.Ru, забирай!