PrimaNota.ru - самый крупный в мире бесплатный архив песенных текстов, аккордов, табулатур и нот


Francis Scott Key - American National Anthem - таба, видео

Регистрация Запомнить меня
Войти через:  Facebook Google Twitter Vk Yandex Mail.ru

Francis Scott Key - American National Anthem - таба, видео

Печатать
Просмотров: 84
-------------------------------------------------------------------------------
                             American National Anthem - Francis Scott Key
-------------------------------------------------------------------------------
Tabbed by:starleigh
Email:kyushinryuaikijujitsu@yahoo.com

Tuning:standard

e|----------------------------------------------------------------------|
B|---------------------------------------9------------------------------|
G|--------------9~-9/13--11-9-------------11-9-8~----6-8-9-9------------|
D|-9-6----6~-9~---------------6-8-9~--9-9------------------------9-6----|
A|-----7~-----------------------------------------------------------7~--|
E|----------------------------------------------------------------------|

e|----------------------------------------------------------------------|
B|---------------------------------------9------------------------------|
G|--------------9~-9/13--11-9-------------11-9-8~----6-8-9-9------------|
D|-9-6----6~-9~---------------6-8-9--9-9------------------------9-6-----|
A|-----7~-----------------------------------------------------------7~--|
E|----------------------------------------------------------------------|

e|-4--4-4--5--7-7--7-5-4--4--5-5~--5--4-------------------------------------|
B|-----------------------7-------------7-5-4--2-4-5---------5-5--5-4-2-2-2--|
G|-------------------------------------------------1-3-4--4-----------------|
D|--------------------------------------------------------------------------|
A|--------------------------------------------------------------------------|
E|--------------------------------------------------------------------------|

e|--4-5-4-----------------0--2--4--5--7~--7/12~~--0-2-4~----5--2~----0--|
B|-7-----7-5-5-4--------------------------------------------------------|
G|-----------------4-4--------------------------------------------------|
D|----------------------------------------------------------------------|
A|----------------------------------------------------------------------|
E|----------------------------------------------------------------------|

Ok i tabd this in the key of Emaj so if u know your theory u can play this in any key
by changing the starting position. enjoy and if u have any questions please email me ttyl


Starleigh


| /  slide up
| \  slide down
| h  hammer-on
| p  pull-off
| ~  vibrato
| +  harmonic
| x  Mute note
===============================================================================
Добавлено: 08.05.2012
Вам также может быть интересно:
Другие материалы по этой песне:
  • Аккорды и текст

Страница создана 08.05.2012
http://primanota.ru/francis-scott-key/american-national-anthem-chords.htm
Привет, Гость.
Предлагаем пройти революционный курс по гитаре.
Подарок от PrimaNota.Ru, забирай!