PrimaNota.ru - самый крупный в мире бесплатный архив песенных текстов, аккордов, табулатур и нот


Francis Magalona - Kalaidescope World - таба, видео

Регистрация Запомнить меня
Войти через:  Facebook Google Twitter Vk Yandex Mail.ru

Francis Magalona - Kalaidescope World - таба, видео

Печатать
Просмотров: 78
Уроки эстрадного вокала в Санкт-Петербурге
Intro:
e|--------15/17-15--10/12-10---------------------|
B|--------15/17-15--10/12-10---------------------|
G|----------------------------------12\----------|
D|----------------------------------12\----------|
A|----------------------------12h14------5h7-5---|
E|-11\0----------------------------------------7-|

   G              Am             Bm               C
e|-----------------------------------------------------------------| repeat once but
B|-------------------------------------------7---------------------| do not include C
G|------4h5-4----------5h7-5-----------------7------------5h7-5----| part, include
D|----5-------5------7-------7---------------9----------7-------7--| instead the
A|-----------------------------------------------------------------| C part alternative.
E|-3------------3-5------------5-7--7x-7x-7x----7-5--5x-----------5|

C part      e|-----------------|
alternative B|-------------5---|
            G|-------------5---|
            D|-------------7---|
            A|-----------------|
            E|-5--5x-5x-5x---5-|
Добавлено: 17.05.2016
Другие материалы по этой песне:
  • Аккорды и текст

Страница создана 17.05.2016
http://primanota.ru/francis-magalona/kalaidescope-world-chords.htm
Привет, Гость.
Предлагаем пройти революционный курс по гитаре.
Подарок от PrimaNota.Ru, забирай!