PrimaNota.ru - самый крупный в мире бесплатный архив песенных текстов, аккордов, табулатур и нот


Francis M - Three Stars And A Sun - таба, видео

Регистрация Запомнить меня
Войти через:  Facebook Google Twitter Vk Yandex Mail.ru

Francis M - Three Stars And A Sun - таба, видео

Печатать
Просмотров: 119
Уроки эстрадного вокала в Санкт-Петербурге
-------------------------------------------------------------------------------
                             Three Stars and a Sun - Francis M
-------------------------------------------------------------------------------
Tabbed by: Johann Galace
Email:

Tuning:Standard
  
Intro

e|---------------------------------------------------------------------------|
B|---------------------------------------------------------------------------|
G|-----7---7-----------7-----7----------7---7----------7-----7---------------|
D|---7--7-7----7-----6---6-6-----6-----5-5-5---5-----6---6-6-----6-----------|
A|-5---------5-----5-----------5-----5-------5-----5-----------5-------------|
E|---------------------------------------------------------------------------|
 
Intro riff  
e|---------------------------------------------------------------------------|
B|---------------------------------------------------------------7*----------|
G|---7-----7---7-----7-----7---7-----7-----7---7-----7--------5*---7-5-------|
D|-7-7-7-7-7-7-7---6-6-6-6-6-6-6---5-5-5-5-5-5-5---6-6-6---------------------|
A|-5---5-5---5-----5---5-5---5-----5---5-5---5-----5---5---------------------|
E|---------------------------------------------------------------------------|
   x   x x   x     x   x x   x     x   x x   x     x   x   
e|---------------------------------------------------------------------------|
B|---------------------------------------------------------------------------|
G|---7-----7---7-----7-----7---7-----7-----7---7-----7----7-5----------------|
D|-7-7-7-7-7-7-7---6-6-6-6-6-6-6---5-5-5-5-5-5-5---6-6-6------7-6-5----------|
A|-5---5-5---5-----5---5-5---5-----5---5-5---5-----5---5------------7-5------|
E|---------------------------------------------------------------------------|
   x   x x   x     x   x x   x     x   x x   x     x   x  x x x x x x x

verse

e|---------------------------------------------------------------------------|
B|---------------------------------------------------------------------------|
G|------7~-----7~-----7~----7~-----------------------------------------------|
D|----7------6------5-----6-------2x-----------------------------------------|
A|-/5------5------5-----5----------------------------------------------------|
E|---------------------------------------------------------------------------|

Chorus

e|---------------------------------------------------------------------------|
B|---------------------------------------------------------------7*----------|
G|---7-----7---7-----7-----7---7-----7-----7---7-----7--------5*---7-5-------|
D|-7-7-7-7-7-7-7---6-6-6-6-6-6-6---5-5-5-5-5-5-5---6-6-6---------------------|
A|-5---5-5---5-----5---5-5---5-----5---5-5---5-----5---5---------------------|
E|---------------------------------------------------------------------------|
   x   x x   x     x   x x   x     x   x x   x     x   x   

e|---------------------------------------------------------------------------|
B|---------------------------------------------------------------7*----------|
G|---7-----7---7-----7-----7---7-----7-----7---7-----7--------5*---7-5-4-----|
D|-7-7-7-7-7-7-7---6-6-6-6-6-6-6---5-5-5-5-5-5-5---6-6-6---------------------|
A|-5---5-5---5-----5---5-5---5-----5---5-5---5-----5---5---------------------|
E|---------------------------------------------------------------------------|
   x   x x   x     x   x x   x     x   x x   x     x   x   

verse 2

e|---------------------------------------------------------------------------|
B|---------------------------------------------------------------------------|
G|------7~-----7~-----7~----7~-----------------------------------------------|
D|----7------6------5-----6-------2x-----------------------------------------|
A|-/5------5------5-----5----------------------------------------------------|
E|---------------------------------------------------------------------------|

Chorus

e|---------------------------------------------------------------------------|
B|---------------------------------------------------------------7*----------|
G|---7-----7---7-----7-----7---7-----7-----7---7-----7--------5*---7-5-------|
D|-7-7-7-7-7-7-7---6-6-6-6-6-6-6---5-5-5-5-5-5-5---6-6-6---------------------|
A|-5---5-5---5-----5---5-5---5-----5---5-5---5-----5---5---------------------|
E|---------------------------------------------------------------------------|
   x   x x   x     x   x x   x     x   x x   x     x   x  

e|---------------------------------------------------------------------------|
B|---------------------------------------------------------------------------|
G|---7-----7---7-----7-----7---7-----7-----7---7-----7----7-5----------------|
D|-7-7-7-7-7-7-7---6-6-6-6-6-6-6---5-5-5-5-5-5-5---6-6-6------7-6-5----------|
A|-5---5-5---5-----5---5-5---5-----5---5-5---5-----5---5------------7-5------|
E|---------------------------------------------------------------------------|
   x   x x   x     x   x x   x     x   x x   x     x   x  x x x x x x x 

solo

e|----------------------------------------------------------------------------|
B|----------------------------------------------------------------------------|
G|---------10-12---------10-12-12b-12-----------------------------------------|
D|-/12v-12-------12v--12--------------12--10-------10-------10-------10----12-|
A|-------------------------------------------10h12----10h12----10h12----12----|
E|----------------------------------------------------------------------------|

e|----------------------------------------------------------------------------|
B|----------------------------------------------------------------------------|
G|---------10-12---------10-12-12b-12-----------------------------------------|
D|-/12v-12-------12v--12--------------12--10-------10-------10----------------|
A|-------------------------------------------10h12----10h12-------------------|
E|----------------------------------------------------------------------------|


e|-13p10--------------------13-14-14b-r----------------------15b-15b-15b-15b--|
B|-------13p10--------13h15-------------15v--13--13--13--13-------------------|
G|-------------11----------------------------15b-15b-15b-15b------------------|
D|----------------12v---------------------------------------------------------|
A|----------------------------------------------------------------------------|
E|----------------------------------------------------------------------------|

e|--------------------------------------------------|
B|--------------------------------------------------|
G|------then play around whammy bar here---7~-------|
D|-12~-------------------------------------7~-------|
A|-----------------------------------------5~-------|
E|--------------------------------------------------|

Do intro riff, Verse and chorus


| /  slide up
| \  slide down
| h  hammer-on
| p  pull-off
| ~  Let it vRing
| +  harmonic
| x  Mute note
===============================================================================
Добавлено: 11.06.2012
Вам также может быть интересно:
Другие материалы по этой песне:
  • Аккорды и текст

Страница создана 11.06.2012
http://primanota.ru/francis-m/three-stars-and-a-sun-chords.htm
Привет, Гость.
Предлагаем пройти революционный курс по гитаре.
Подарок от PrimaNota.Ru, забирай!