PrimaNota.ru - самый крупный в мире бесплатный архив песенных текстов, аккордов, табулатур и нот


Francesqa - Ghosts - таба, бас-таба, видео

Регистрация Запомнить меня
Войти через:  Facebook Google Twitter Vk Yandex Mail.ru

Francesqa - Ghosts - таба, бас-таба, видео

Печатать
Просмотров: 174
-- Francesqa – Ghosts --

standard tuning EADGBE

tabbed by x-tasha-x

Listen to the song for the strumming pattern =D


INTRO:
guitar 1:
E||------7------7-------------------7------7--------------|
B||--------9~-----7~----9-------------9~-----7~----9------|
G||-6~--9------9------9---6~---6~--9------9------9---6b---|
D||-------------------------------------------------------|
A||-------------------------------------------------------|
E||-------------------------------------------------------|

guitar 2:
E||----------------------------------------------------------------------|
B||----------------------------------------------------------------------|
G||-66666666-99999999-------------------66666666-99999999----------------|
D||-66666666-99999999-99999999-44444444-66666666-99999999-99999999-4-44~-|
A||-44444444-77777777-99999999-44444444-44444444-77777777-99999999-4-44~-|
E||-------------------77777777-22222222-------------------77777777-2-22~-|


VERSE:
guitar 1: starts at around 0:30 x2
E||----19-16~----|  |----19-------|
B||-17-----------|x3|-17----19~---|
G||--------------|  |-------------|
D||--------------|  |-------------|
A||--------------|  |-------------|
E||--------------|  |-------------|

guitar 2:(palm mute) x4
E||-------------------------------------|
B||-------------------------------------|
G||-66666666-99999999-------------------|
D||-66666666-99999999-22222222-77777777-|
A||-44444444-77777777-22222222-77777777-|
E||-------------------00000000-55555555-|


CHORUS:
guitar 1:
E||------7------7-------------------7------7--------------|
B||--------9~-----7~----9-------------9~-----7~----9------|
G||-6~--9------9------9---6~---6~--9------9------9---6b---|
D||-------------------------------------------------------|
A||-------------------------------------------------------|
E||-------------------------------------------------------|

guitar 2:
E||----------------------------------------------------------------------|
B||----------------------------------------------------------------------|
G||-66666666-99999999-------------------66666666-99999999----------------|
D||-66666666-99999999-99999999-44444444-66666666-99999999-99999999-4-44~-|
A||-44444444-77777777-99999999-44444444-44444444-77777777-99999999-4-44~-|
E||-------------------77777777-22222222-------------------77777777-2-22~-|


VERSE 2:
guitar 1: starts at around 1:16 x2
E||--7------7------7------7-----|
B||----9~-----9~-----9~-----7~--|
G||-9------9------9------9------|
D||-----------------------------|
A||-----------------------------|
E||-----------------------------|

guitar 2:(palm mute) x4
E||-------------------------------------|
B||-------------------------------------|
G||-66666666-99999999-------------------|
D||-66666666-99999999-22222222-77777777-|
A||-44444444-77777777-22222222-77777777-|
E||-------------------00000000-55555555-|


PRE CHORUS:
Make this world seem a better place...
guitar 1:
E||--------------------------------------0---|
B||---------------------------------------0--|
G||-9-------9-------9-------9--------------3-|
D||---11-9----11-9----11-9----11-9-8~--------|
A||------------------------------------------|
E||------------------------------------------|

guitar 2:
E||--------------------------------------0---|
B||---------------------------------------0--|
G||-6~--------------6~---------------------3-|
D||-6~--------------6~-------------4~--------|
A||-4~--------------4~-------------4~--------|
E||--------------------------------2~--------|


CHORUS(same as before)


AFTER 2ND CHORUS:
guitar 1:
E||--------------------------------------------------------------------------|
B||--------------------7777777777777777--------------------77777777----------|
G||-6666-8888-99999999------------------6666-8888-99999999----------66666666-|
D||--------------------------------------------------------------------------|
A||--------------------------------------------------------------------------|
E||--------------------------------------------------------------------------|

guitar 2:
E||----------------------------------------------------------------------|
B||----------------------------------------------------------------------|
G||-66666666-99999999-------------------66666666-99999999----------------|
D||-66666666-99999999-99999999-44444444-66666666-99999999-99999999-4-44~-|
A||-44444444-77777777-99999999-44444444-44444444-77777777-99999999-4-44~-|
E||-------------------77777777-22222222-------------------77777777-2-22~-|


then:
guitar 1 & 2:
E||-------------------|
B||-------------------|
G||-------------------|
D||-22222222-44444444-|
A||-22222222-44444444-|
E||-00000000-22222222-|



SOLO:
guitar 1: 
E||-----------------------------7777---------------------------------------|
B||--------------------99999999------7777----------------------------------|
G||-99999999-8888-6666--------------------99999999-11 11 11 11 11 11 11 11-|
D||------------------------------------------------------------------------|
A||------------------------------------------------------------------------|
E||------------------------------------------------------------------------|

E||-----------------------------7777---------------------------|
B||--------------------99999999------7777----------------------|
G||-99999999-8888-6666--------------------99999999-11 11 11 11-|
D||------------------------------------------------------------|
A||------------------------------------------------------------|
E||------------------------------------------------------------|

guitar 2: 
E||-------------------------------------------------------|
B||-------------------------------------------------------|
G||-66666666-99999999-------------------------------------|
D||-66666666-99999999-22222222-77777777-22222222-44444444-|
A||-44444444-77777777-22222222-77777777-22222222-44444444-|
E||-------------------00000000-55555555-00000000-22222222-|

E||---------------------------------------------------|
B||---------------------------------------------------|
G||-66666666-99999999---------------------------------|
D||-66666666-99999999-22222222-77777777-22222222-4444-|
A||-44444444-77777777-22222222-77777777-22222222-4444-|
E||-------------------00000000-55555555-00000000-2222-|


BEFORE LAST CHORUS:
guitar 1: 
E||--7------7------7-----0----|
B||----9~-----9~-----9~---0---|
G||-9------9------9--------3--|
D||---------------------------|
A||---------------------------|
E||---------------------------|

guitar 2:
E||---------------------------|
B||---------------------------|
G||---------------------------|
D||-----------------------4~--|
A||-----------------------4~--|
E||-----------------------2~--|


CHORUS(Same as before)

END WITH:
guitar 1: 
E||-----------------------------7777--------------------------------------|
B||--------------------99999999------7777--------------------777777777~---|
G||-99999999-8888-6666--------------------99999999-8888-6666--------------|
D||-----------------------------------------------------------------------|
A||-----------------------------------------------------------------------|
E||-----------------------------------------------------------------------|

guitar 2:
E||----------------------------------------------------------------------|
B||----------------------------------------------------------------------|
G||-66666666-99999999-------------------66666666-99999999----------------|
D||-66666666-99999999-99999999-44444444-66666666-99999999-99999999-4-44~-|
A||-44444444-77777777-99999999-44444444-44444444-77777777-99999999-4-44~-|
E||-------------------77777777-22222222-------------------77777777-2-22~-|




http://www.myspace.com/francesqa
Добавлено: 09.07.2012
Другие материалы по этой песне:
  • Аккорды и текст

Страница создана 02.04.2012
http://primanota.ru/francesqa/ghosts-chords.htm
Привет, Гость.
Предлагаем пройти революционный курс по гитаре.
Подарок от PrimaNota.Ru, забирай!