PrimaNota.ru - самый крупный в мире бесплатный архив песенных текстов, аккордов, табулатур и нот


Francesco Tarrega - Mazurka In G - таба, видео

Регистрация Запомнить меня
Войти через:  Facebook Google Twitter Vk Yandex Mail.ru

Francesco Tarrega - Mazurka In G - таба, видео

Печатать
Просмотров: 68
MAZURKA IN G - FRANCESCO TARREGA


a
i
p                                       0 1 0
---------------------------------------------------------------------8---------|
1--------1---1---------3----------1---0--010----------------------8------8-----|
-----------------------------------------------3---4--------------9------9-----|
0--------1---2---------4----------2---0----------------------------------------|
0/---------------------5/----------------------4/--5/--------------------------|
----------------------------------3/---------------------3/---8/---------------|


----------------------------------------4~7----0-----0-------------------8-----|
7----5----5----3----353--3---3----------------------------5-----5686-5---------|
7----5----5----4----4----3---4-----------------------7-------------------------|
--------------------5/-------------------------------6/------------------------|
-------------------------------------------------------------------------0/----|
----------3/----------------------------0/-------------------------------------|


7--5------------3---2-------0---------------------------------------------------|
---5-------5----------------------------3-----------5---------3-----------------|
---5----------------2-345---------------5-----------3---------4-----------------|HARMONIC
--------------------0/----------2/------4/----0/-----------------------5/-------|
-----------3/--------------------------------------------4/---5/----------------|
----------------------------------------------------3/--------------------------|


------------------2-------5-----3-----353--2---3----------------------12-------|
1~3-----4--5--------------------------3--------3----------------8-----8----8---|
2~5-----5--5------5-------5-----4-----4----3---4----------------9-----9----9---|
0-----------------0/--------------------------------------------------10/------|
-------------------------------------------------------------------------------|
--------------------------3/-------------------------3/----8/------------------|

                                  10 13 10
---------------------------------101310---0---------10---8-----7-----7-----5---|
7----5----5----3---353---3-3------------------6~9------------------------------|
7----5----5----4---4-----3-4------------------7~10-------9-----7-----7-----5---|
-------------------5/----------------------------------------------------------|
---------------------------------------------------------------------0/--------|
----------3/---------------------0/--------------------------------------------|


575--4-----5----------3~7---3--------0------2-----3----------------------------|
----------------------------3----3---2------1-----0----------------------------|
5----4-----5----------------4----4---3------2-----0----------------------------|
-------------------0/----------------0/---------------------------------END----|
-----------3/------------------------------------------------------------------|
-------------------------------------------------------------3/----------------|


|---------0---------------------------0----------0----------------5------------|
|---------7-------7-------------------8----------8----------------7------------|
|:----------------8-----------------------------------9/---7/------------------|
|-10/--------9/---7---10/9-----------------------9/--------0/-----------7/10---|
|-0/-------------------------7/---9/--10/---12/--------------------------------|
|-----------------7/---------0/------------------------------------------------|


----------------0--------0----------3--------------2-----1-----2---------------|
----------------------------0----------------2----------------------5----4-----|
---------------------------------------------3-----------3---------------------|
9/----8/---8/------11/------12/-------------------------------------4----------|
-----------10/------------------------------------------------------2/---------|
------------------------------------2/-----------------------------------------|

                                               1st TIME...................
--------11-------------------------------------0-------------------------------|
3---4--------12--8-----------7----5----7------------3----353----2--3-----------|
------------------------7---------6------------0--------------------------:----|
------------------------9---------5-----------------4----4------3/-4/----------|
-----------------------------------------------5/------------------------------|
-----------------0/---------------5/-------------------------------------------|

2nd TIME.................... RETURN TO THE BEGINNING
0------------------------------------------------------------------------------|
--------3-3--------------------------------------------------------------------|
0-------5-5---------HARMONIC---------------------------------------------------|
--------4-4---------5----------------------------------------------------------|
5/-----------------------------------------------------------------------------|
-------------------------------------------------------------------------------|
Добавлено: 09.08.2013
Другие материалы по этой песне:
  • Аккорды и текст

Страница создана 09.08.2013
http://primanota.ru/francesco-tarrega/mazurka-in-g-chords.htm
Привет, Гость.
Предлагаем пройти революционный курс по гитаре.
Подарок от PrimaNota.Ru, забирай!