PrimaNota.ru - самый крупный в мире бесплатный архив песенных текстов, аккордов, табулатур и нот


Francesco De Gregori - Le Strade Di Lei (feat. Antonello Ven) - текст песни, таба, видео

Регистрация Запомнить меня
Войти через:  Facebook Google Twitter Vk Yandex Mail.ru

Francesco De Gregori - Le Strade Di Lei (feat. Antonello Ven) - текст песни, таба, видео

Печатать
Просмотров: 85
Уроки эстрадного вокала в Санкт-Петербурге
		   LE STRADE DI LEI - DE GREGORI

Intro:
 
ARPEGGIO
       DO arp               DO arp                 LAm arp               LAm arp
|-------------------|-------------------|-----------------------|--------------------|
|-------1-1/3---1---|-------1-1/3---1---|--------1-1/3---1------|-------1-1/3---1----|
|-----0-------0---0-|-----0-------0---0-|------2-------2---2----|-----2-------2---2--|
|---2---------------|---2---------------|----2------------------|---2----------------|
|-3-----------------|-3-----------------|--0--------------------|-0------------------|
|-------------------|-------------------|-----------------------|--------------------|

 FA arp(barre 5o tasto)     SOL arp(barre 7o tasto)
|---------------------|    |-----------------------|
|--------6-6/8---6----|	   |--------8-8/10---8-----|
|------5-------5---5--|	   |------7--------7---7---|
|----7----------------|	   |----9------------------|
|-8-------------------|	   |-10--------------------|
|---------------------|	   |-----------------------|


     DO arp       DO arp      DO arp        LAm arp LAm arp
In fondo non importa che i tuoi santi siano molti,
     DO arp       DO arp      DO arp        LAm arp LAm arp  
e che molti con un soffio spegneranno la candela
     FA arp      FA arp       FA arp      FA arp
e in fondo tu già sai che domani è un giorno lungo
     DO arp       DO arp      DO arp        LAm arp LAm arp 
e che un altro verrà a dirti il tuo amore e i tuoi pensieri.
     SOL arp   SOL arp   SOL arp   SOL arp  
E tu lo seguirai come fosse uno sparviero,
     DO arp       DO arp      DO arp        LAm arp LAm arp 
pauroso dell'orgoglio, della sua fragilità.
	DO				      Am
E tu stringi intorno ai fianchi il tuo filo di aquilone,
	DO				      Am
la tua strada è molto lunga, forse non la seguirò.
	FA				FA
E io vedo sulla porta i tuoi capelli troppo fini,
	DO				      Am
la tua strada è molto vecchia, forse non la seguirò.
	SOL				SOL
Tu cammini accanto all'onda, so che andrai così lontano
	DO				      Am
e un bambino senza volto si innamorerà di te.
     DO arp       DO arp      DO arp        LAm arp LAm arp
E ci sono molte pietre sul cammino di Maria
     DO arp       DO arp      DO arp        LAm arp LAm arp
e sei tu che le raccogli e le porti oltre la sponda
    FA arp      FA arp       FA arp      FA arp
e tu dici a chi ti incontra che la notte è molto fredda
     DO arp       DO arp      DO arp        LAm arp LAm arp
e se lui ti sfiora il braccio tu sorridi e te ne vai.
     SOL arp   SOL arp   SOL arp   SOL arp  
E lui chiama per sapere il tuo nome, la tua storia,
     DO arp     DO arp    DO arp      LAm arp LAm arp
e tu dici non importa ma se vuoi ti sposerò.
	DO				      Am
E lui è solo un disertore, lui è solo un fuggitivo,
	DO				      Am
il suo corpo è una bandiera, il suo corpo è una canzone.
	FA				FA
E tu stringi intorno ai fianchi il tuo filo di acquilone
	DO				      Am
e lui fumerà il ricordo e non seguirà il tuo treno 
	SOL				SOL
e gli dai una vecchia copia di un romanzo di Delly
	DO				      Am
e richiudi la sua porta, il suo oroscopo è scaduto.

outro:
ARPEGGIO SFUMATO

      DO arp               DO arp                 LAm arp               LAm arp
|-------------------|-------------------|-----------------------|--------------------|
|-------1-1/3---1---|-------1-1/3---1---|--------1-1/3---1------|-------1-1/3---1----|
|-----0-------0---0-|-----0-------0---0-|------2-------2---2----|-----2-------2---2--|
|---2---------------|---2---------------|----2------------------|---2----------------|
|-3-----------------|-3-----------------|--0--------------------|-0------------------|
|-------------------|-------------------|-----------------------|--------------------|



By Sorry

Anny ti amo ancora

     
Добавлено: 18.07.2013
Другие материалы по этой песне:
  • Аккорды и текст

Страница создана 17.03.2012
http://primanota.ru/francesco-de-gregori/le-strade-di-lei-chords.htm
Привет, Гость.
Предлагаем пройти революционный курс по гитаре.
Подарок от PrimaNota.Ru, забирай!