PrimaNota.ru - самый крупный в мире бесплатный архив песенных текстов, аккордов, табулатур и нот


Framing Hanley - Slow Dance - текст песни, таба, видео

Регистрация Запомнить меня
Войти через:  Facebook Google Twitter Vk Yandex Mail.ru

Framing Hanley - Slow Dance - текст песни, таба, видео

Печатать
Просмотров: 137
Slow Dance
by Framing Hanley

INTRO
E|-----------------|8X 
B|o--------4-4-4--o|
G|---------4-4-4---|
D|---2-2-2---------|
A|o--2-2-2--------o|
D|---2—2-2---------|

E|-----------------|4X
B|o--------4-4-4--o|
G|---------4-4-4---|
D|---4-4-4---------|
A|o--4-4-4--------o|
D|---4—4-4---------|

E|-----------------|4X
B|o--------4-4-4--o|
G|---------4-4-4---|
D|---2-2-2---------|
A|o--2-2-2--------o|
D|---2—2-2---------|

E|-----------------|4X
B|o--------4-4-4--o|
G|---------4-4-4---|
D|---4-4-4---------|
A|o--4-4-4--------o|
D|---4—4-4---------|

PRECHORUS
E|------------|2X  |-------|
B|o----------o|    |-------|
G|---4~--9~---|    |--11~--|
D|---x---x----|    |--x----|
A|o—-2~--7~--o|    |--9~---|
D|------------|    |-------|

CHORUS
E|------------|2X  (During the chorus, => |-----------------|(repeat a this
B|o----------o|     this is playing    => |o---------------o| lot of times
G|---4~--8~---|     in the background) => |--8-6-4h6-4h6----| during chorus)
D|---x---x----|                           |-----------------|
A|o—-2~--6~--o|                           |o---------------o|
D|------------|                           |-----------------|

INTRO
E|-----------------|8X 
B|o--------4-4-4--o|
G|---------4-4-4---|
D|---2-2-2---------|
A|o--2-2-2--------o|
D|---2—2-2---------|

E|-----------------|4X
B|o--------4-4-4--o|
G|---------4-4-4---|
D|---4-4-4---------|
A|o--4-4-4--------o|
D|---4—4-4---------|

E|-----------------|4X
B|o--------4-4-4--o|
G|---------4-4-4---|
D|---2-2-2---------|
A|o--2-2-2--------o|
D|---2—2-2---------|

E|-----------------|4X
B|o--------4-4-4--o|
G|---------4-4-4---|
D|---4-4-4---------|
A|o--4-4-4--------o|
D|---4—4-4---------|

PRECHORUS
E|------------|2X  |-------|
B|o----------o|    |-------|
G|---4~--9~---|    |--11~--|
D|---x---x----|    |--x----|
A|o—-2~--7~--o|    |--9~---|
D|------------|    |-------|

CHORUS
E|------------|2X  (During the chorus, => |-----------------|(repeat a this
B|o----------o|     this is playing    => |o---------------o| lot of times
G|---4~--8~---|     in the background) => |--8-6-4h6-4h6----| during chorus)
D|---x---x----|                           |-----------------|
A|o—-2~--6~--o|                           |o---------------o|
D|------------|                           |-----------------|

INTERLUDE
E|-----------------------|----------------|
B|-----------------------|--(loud-part)---|
G|--8~--11~--8~--6~--8~--|--8~--6~--4-4~--|
D|--x---x----x---x---x---|--x---x---x-x---|
A|--6~--9~---6~--4~--6~--|--6~--4~--2-2~--|
D|-----------------------|----------------|

CHORUS
E|------------|5X  (During the chorus, => |-----------------|(repeat a this
B|o----------o|     this is playing    => |o---------------o| lot of times
G|---4~--8~---|     in the background) => |--8-6-4h6-4h6----| during chorus)
D|---x---x----|                           |-----------------|
A|o—-2~--6~--o|                           |o---------------o|
D|------------|                           |-----------------|

END
E|------|
B|------|
G|--8~--|
D|--x---|
A|--6~--|
D|------|
Добавлено: 18.05.2012
Другие материалы по этой песне:
  • Аккорды и текст

Страница создана 18.05.2012
http://primanota.ru/framing-hanley/slow-dance-chords.htm
Привет, Гость.
Предлагаем пройти революционный курс по гитаре.
Подарок от PrimaNota.Ru, забирай!