PrimaNota.ru - самый крупный в мире бесплатный архив песенных текстов, аккордов, табулатур и нот


Framing Hanley - Home - текст песни, таба, видео

Регистрация Запомнить меня
Войти через:  Facebook Google Twitter Vk Yandex Mail.ru

Framing Hanley - Home - текст песни, таба, видео

Печатать
Просмотров: 132
This is my second tab, and I'm not perfect so don't expect me to be. I've played 
this over about a million times so I'm 
confident in it. I was also very surprised nobody put this up yet so I was tired 
of waiting and did it myself. 
Question, comments, changes email me at guitarfreak2595@aol.com. Enjoy [:

Band: Framing Hanley
Song: Home
Tuning: Drop D

I'm not tabbing out everything note for note so you can figure out the strumming 
pretty easily by listening to the song.

Intro

e|-------------------------------------------------------------------------|
B|-------------------------------------------------------------------------|
G|---13----8--10----13----8--6---17-\-13---17--18---13----8--6--5/6--------|
D|----x----x--x-----x-----x--x----x-\--x----x---x----x----x--x--x/x--------|
A|---11----6--8-----11----6--4---15-\-11---15--16---11----6--4--3/4--------|
D|-------------------------------------------------------------------------|

Verse (x2)

e|-------------------------------------------------------------------------|
B|-------------------------------------------------------------------------|
G|-------------------------------------------------------------------------|
D|---4-----8-----6---------------------------------------------------------|
A|---4-----8-----6---------------------------------------------------------|
D|---4-----8-----6---------------------------------------------------------|

Pre-Chorus (Lead)(x8)

e|---------16----14----13--------------------------------------------------|
B|---11-11----11----11---11------------------------------------------------|
G|-------------------------------------------------------------------------|
D|-------------------------------------------------------------------------|
A|-------------------------------------------------------------------------|
D|-------------------------------------------------------------------------|

Pre-Chorus (Rythym)(x2)
e|-------------------------------------------------------------------------|
B|-------------------------------------------------------------------------|
G|---------------6/8\6-----------------------------------------------------|
D|--4----8---6---x/x\x-----------------------------------------------------|
A|--4----8---6---4/6\4-----------------------------------------------------|
D|--4----8---6-------------------------------------------------------------|

Chorus Pt. 1 (x2)

e|-------------------------------------------------------------------------|
B|-------------------------------------------------------------------------|
G|--6--8--10----6--8--3----------------------------------------------------|
D|--x--x--x-----x--x--x----------------------------------------------------|
A|--4--6--8-----4--6--1----------------------------------------------------|
D|-------------------------------------------------------------------------|

Chorus Pt. 2

e|-------------------------------------------------------------------------|
B|-------------------------------------------------------------------------|
G|--6--8--10----13---10----6--8--10----6--8--3~----------------------------|
D|--x--x--x------x----x----x--x---x----x--x--x~----------------------------|
A|--4--6--8-----11----8----4--6---8----4--6--1~----------------------------|
D|-------------------------------------------------------------------------|

Verse 

Pre-Chorus (both rythym and lead parts again)

Chorus pt. 1 

Chorus Pt. 2 


Break Pt. 1 (Rythym)

e|-----------------------------------------------------|
B|-----------------------------------------------------|
G|-------------------------------8---8---8---8---8-8---|
D|--11---11---11---11---11--11----8-8-8-8-8-8-8-8-8-8--|
A|----9-9--9-9--9-9--9-9---9--9------------------------|
D|-----------------------------------------------------|

e|-----------------------------------------------------|
B|-----------------------------------------------------|
G|-------11--10------10----13--10--11--10-----10-------|
D|---------------11-------------------------11---------|
A|--9-9-9---9---9---9----9----9---9---9---9------------|
D|-----------------------------------------------------|

Break Pt. 2 (x2) (Lead)

e|-----------------------------------------------------|
B|----7-6--4-2-4~----7-6--4-2-4-2~---------------------|
G|-----------------------------------------------------|
D|-----------------------------------------------------|
A|-----------------------------------------------------|
D|-----------------------------------------------------|

Break Pt. 3 (Both)

e|-----------------------------------------------------|
B|-----------------------------------------------------|
G|---6~-----8~----10----11--13-------------------------|
D|--4------6------8-----9---11-------------------------|
A|-----------------------------------------------------|
D|-----------------------------------------------------|

Chorus Pt. 1 


Chorus (Variation)(Single steady downstrokes)(x2)

e|----------------------------------------------------|
B|----------------------------------------------------|
G|--6---10-----13---10--------------------------------|
D|--x----x------x----x--------------------------------|
A|--4----8-----11----8--------------------------------|
D|----------------------------------------------------|

End on...

e|-------|
B|-------|
G|-------|
D|--4~---|
A|--4~---|
D|--4~---|
Добавлено: 03.05.2012
Другие материалы по этой песне:
  • Аккорды и текст

Страница создана 03.05.2012
http://primanota.ru/framing-hanley/home-chords.htm
Привет, Гость.
Предлагаем пройти революционный курс по гитаре.
Подарок от PrimaNota.Ru, забирай!