PrimaNota.ru - самый крупный в мире бесплатный архив песенных текстов, аккордов, табулатур и нот


Framing Hanley - Bittersweet Sundown - текст песни, бас-таба, видео

Регистрация Запомнить меня
Войти через:  Facebook Google Twitter Vk Yandex Mail.ru

Framing Hanley - Bittersweet Sundown - текст песни, бас-таба, видео

Печатать
Просмотров: 171
Tabbed by: Matt
Email: May92d@yahoo.com
Song: Bittersweet Sundown
Artist: Framing Hanley
Album: A Promise to Burn
Tuning: (E, A, D, G)
/slide down
\slide up


Intro-
G |------------------------------------------------------------------|
D |------------------------------------------------------------------|
A |----------------222222000000---------------------222222000000-----|
E |3333333000000022------------2222-3333333000000022------------222--|

Verse1
Come in at 0:18
G |------------------------------------------------------------------|
D |22222225555555--------------22222222h555555----------------2222222|
A |--------------22222220000000---------------2000000055555045-------|
E |------------------------------------------------------------------|

G |-------------------------|
D |5555555------------------|
A |-------22222220000000----|
E |---------------------0~--|

Chorus
Come in at 0:39
G |------------------------------------------------------------------|
D |------------------------------------------------------------------|
A |----------------222222000000---------------------222222000000-----|
E |3333333000000022------------2222-3333333000000022------------2222-|

G |-----------------------------------------------------------|
D |-----------------------------------------------------------|
A |------55555000222222000000-----------------22222220000000--|
E |3333333--------------------22-33333330000000---------------|

Verse2
G |------------------------------------------------------------------|
D |22222225555555--------------22222222h555555----------------2222222|
A |--------------22222220000000---------------2000000055555045-------|
E |------------------------------------------------------------------|

G |-----------------------------------------------------|
D |555555---------------22222222h555555-----------------|
A |------222222220000000---------------200000005555555--|
E |-----------------------------------------------------|

Chorus2
Come in at 1:30
G |------------------------------------------------------------------|
D |------------------------------------------------------------------|
A |----------------222222000000---------------------222222000000-----|
E |3333333000000022------------2222-3333333000000022------------2222-|


G |------------------------------------------------------------------|
D |------------------------------------------------------------------|
A |-------55555000222222000000-----------------22222250~000000-------|
E |3333333--------------------22-33333330000000---------------3333345|

G |----|
D |----|
A |----|
E |1~--|

Bridge x 6
slide down after the 6th time (/)
G |------------------------------------|
D |------------------------------------|
A |22222204~4444024-77777779~9999999/--|
E |------------------------------------|

Outro- 
Chorus3
G |------------------------------------------------------------------|
D |------------------------------------------------------------------|
A |----------------222222000000-------------------222222000000-------|
E |3333333000000022------------2222-33333330000000------------2222-33|

G |------------------------------------------------------------------|
D |------------------------------------------------------------------|
A |-----55555000222222000000---------------------222222000000--------|
E |33333--------------------2222-3333333000000022------------3~--\7~-|
Добавлено: 14.07.2012
Другие материалы по этой песне:
  • Аккорды и текст

Страница создана 14.07.2012
http://primanota.ru/framing-hanley/bittersweet-sundown-chords.htm
Привет, Гость.
Предлагаем пройти революционный курс по гитаре.
Подарок от PrimaNota.Ru, забирай!