PrimaNota.ru - самый крупный в мире бесплатный архив песенных текстов, аккордов, табулатур и нот


Fragmenta - Eternal Flame - таба, видео

Регистрация Запомнить меня
Войти через:  Facebook Google Twitter Vk Yandex Mail.ru

Fragmenta - Eternal Flame - таба, видео

Печатать
Просмотров: 108
Tuning: Eb Ab Db Gb Bb Eb (E flat "slack" tuning)

Intro guitar sound effects etc.

 Intro (acoustic)
e|-------------------------------------|x4
B|-------------------------------------|
G|-------------------------------------|
D|----5---4---4b(4)------5---4---4b(4)-|
A|---------------------5---0-----------|
E|0------------------------------------|

Verse
e|-----------------------------|x3
B|-----------------------------|
G|-----------------------------|
D|------4/5-(5)---5--5-4-0-2---|
A|---2-------3-----------------|
E|0----------------------------|

e|-----------------------------|(repeat section twice)
B|-----------------------------|
G|-----------------------------|
D|------4/5-(5)---7--5-4-0-2---|
A|---2-------3-----------------|
E|0----------------------------|

Clean fill
e|--------------|
B|--------------|
G|-(10)h12-10\--|
D|-(10)h12-10\--|
A|--------------|
E|--------------|

Chorus (w/distortion P.M.---|
e|------------------------------------| x4
B|------------------------------------|
G|------------------------------------|
D|2--x--3-3-5-5---------------3-5-5---|
A|2--x--1-1-5-3---------------1-5-3---|
E|0--x--1-1-3-3------0-0-0-0--1-3-3---|

Fill
e|-----------------------|
B|-----------------------|
G|-----------------------|
D|-7-5-4-5-4-------------|
A|-----------5-7~~~(7)\--|
E|-----------------------|

Fill 2
e|--------------|
B|--------------|
G|--------------|
D|-5/7-7/9-9/10-|
A|--------------|
E|--------------|

Bridge ("I haven't got the answer") part

Clean
e|-------------------------------0--|
B|-------------------------------0--|
G|-------2--------4--------------0--|
D|----5--------7-----------------2--|
A|-3--------5--------------------2--|
E|---------------------3-2-0-----0--|

e|-------------------0--|
B|-------------------0--|
G|-------2--------4--0--|
D|----5--------7-----2--|
A|-3--------5--------2--|
E|-------------------0--|

PM----------|
e|-----------|
B|-----------|
G|-----------|
D|-3-3-3-3-3-|
A|-1-1-1-1-1-|
E|-----------|

Solo (w/dist)
e|-------------------------------------------------------------------------7-8---------------------------|
B|--10-8-7-8-7-----------------------------------------------------7-8-10-------12h15h12-----12h15h12----|
G|-------------7-9~---9-^-7---9-7-6-----------------7----7-9--7-9-----------------------h15----------h15-|
D|-----------------------------------7-9~----7-9-10---10-------------------------------------------------|
A|-------------------------------------------------------------------------------------------------------|
E|-------------------------------------------------------------------------------------------------------|

e|-----------------------17b(19)--17b(19)pbr(17)15-----15h17h15h14h15h14h15h14----------------------------|
B|12-15-12----15b(17)-------------------------------------------------------15-13-12----------------------|
G|---------15-------------------------------------------------------------------------14--12h14h12-11-----|
D|--------------------------------------------------------------------------------------------------------|
A|--------------------------------------------------------------------------------------------------------|
E|--------------------------------------------------------------------------------------------------------|

e|------------12----------------------------------------------------------------------12+----------------|
B|--------------------------------------------------------------------7+-------7+------------------------|
G|----14b(16)-------14b(16)---(16)br14-12-14-11-12-9-11-7-9-5-7-4-5-2------5+----------------------------|
D|-------------------------------------------------------------------------------------------------------|
A|-------------------------------------------------------------------------------------------------------|
E|-------------------------------------------------------------------------------------------------------|

Intro again as outro end on Em  (for the outro blues licks, one does not simply... "tab the blues")

Cheers
rip

-D

************************************

| /   slide up
| \   slide down
| h   hammer-on
| p   pull-off
| ~   vibrato
| +   harmonic
| x   Mute note
| b   Bend
| pb  Pre-bend
| br  Bend release
| pbr Pre-bend release
| brb Bend release bend

************************************
Добавлено: 12.08.2015
Другие материалы по этой песне:
  • Аккорды и текст

Страница создана 12.08.2015
http://primanota.ru/fragmenta/eternal-flame-chords.htm
Привет, Гость.
Предлагаем пройти революционный курс по гитаре.
Подарок от PrimaNota.Ru, забирай!