PrimaNota.ru - самый крупный в мире бесплатный архив песенных текстов, аккордов, табулатур и нот


Fraeulein Wunder - Wir Sind Neu - бас-таба, видео

Регистрация Запомнить меня
Войти через:  Facebook Google Twitter Vk Yandex Mail.ru

Fraeulein Wunder - Wir Sind Neu - бас-таба, видео

Печатать
Просмотров: 138
Уроки эстрадного вокала в Санкт-Петербурге
Intro (0:00)
G|--------|--------|--------|--------|
D|--------|--------|--------|--------|
A|66666666|--------|66666666|66666\--|
E|--------|77777777|--------|--------|

Vers (0:07)
G|--------|--------|--------|--------|
D|--------|--------|--------|--------|
A|66666666|99999999|--------|--------| 4x
E|--------|--------|77777777|77777777|

Pre-Chorus (0:35)
G|--------|--------|--------|--------|
D|--------|--------|--------|--------|
A|--------|66-6-666|--------|--------| 
E|99-9-999|--------|77-7-777|77-7-777|

G|--------|--------|--------|--------|
D|--------|--------|--------|--------|
A|--------|66-6-666|--------|--------| 
E|99-9-999|--------|77-7-777|99--77--|

Chorus & Post-Chorus (0:49)
G|--------|--------|--------|--------|
D|--------|--------|--------|--------|
A|66666666|22222222|--------|44444444| 4x
E|--------|--------|22222222|--------|

Interlude (1:16)
G|--------|--------|--------|--------|
D|--------|--------|--------|--------|
A|66--66--|--------|66--66--|66--6\--|
E|--------|77--77--|--------|--------|

Vers (1:23) 2x

Pre-Chorus (1:36)

Chorus & Post-Chorus (1:50)

Bridge (2:18)
G|--------|--------|--------|--------|
D|3~------|--------|6~------|--------|
A|--------|4~------|--------|6~------| 2x
E|--------|--------|--------|--------|

G|--------|--------|--------|--------|
D|--------|--------|--------|--------|
A|--------|--------|--------|--------|
E|--------|--------|--------|--------|

G|--------|--------|--------|--------|
D|--------|--------|6-6-6-6-|--------|
A|8-8-8-8-|4-4-4-4-|--------|66------| 
E|--------|--------|--------|--------|

Chorus (2:45)
G|--------|--------|--------|--------|
D|--------|--------|--------|--------|
A|--------|44444444|--------|66666666| 4x
E|11111111|--------|44444444|--------|

End (3:12)
G|--------|
D|--------|
A|--------|
E|1~------|

Добавлено: 24.03.2012
Другие материалы по этой песне:
  • Аккорды и текст

Страница создана 24.03.2012
http://primanota.ru/fraeulein-wunder/wir-sind-neu-chords.htm
Привет, Гость.
Предлагаем пройти революционный курс по гитаре.
Подарок от PrimaNota.Ru, забирай!