PrimaNota.ru - самый крупный в мире бесплатный архив песенных текстов, аккордов, табулатур и нот


Fraeulein Wunder - Sternradio - бас-таба, видео

Регистрация Запомнить меня
Войти через:  Facebook Google Twitter Vk Yandex Mail.ru

Fraeulein Wunder - Sternradio - бас-таба, видео

Печатать
Просмотров: 125
Vers (0:32)
G|--------|--------|--------|--------|
D|--------|--------|--------|--------|
A|--------|--------|--------|3--3--5-|
E|--------|--------|--------|--------|

G|--------|--------|--------|--------|
D|--------|--------|--------|--------|
A|--------|--------|--------|33332222|
E|00000000|00000000|00000000|--------|

Chorus (0:53)
G|--------|--------|--------|--------|
D|--------|--------|--------|--------|
A|--------|33333333|55555555|--------|
E|00000000|--------|--------|33332222|

G|--------|--------|--------|--------|
D|--------|--------|--------|------24|
A|--------|00000000|33333333|222222--|
E|00000000|--------|--------|--------|

G|--------|--------|------75|--------|
D|--------|--------|--------|55554444|
A|--------|33333333|555555--|--------|
E|00000000|--------|--------|--------|

G|--------|22222222|--------|--------|
D|22222222|--------|--------|--------|
A|--------|--------|33333333|22222222|
E|--------|--------|--------|--------|

G|--------|--------|--------|--------|
D|--------|--------|--------|--------|
A|------02|33332222|------02|33--55--|
E|000023--|--------|000023--|--------|

Vers (2:08)
G|--------|--------|--------|--------|
D|22222222|22222222|22222222|--------|
A|--------|--------|--------|33333355|
E|--------|--------|--------|--------|

G|--------|--------|--------|--------|
D|--------|--------|--------|--------|
A|--------|--------|--------|33332222|
E|00000000|00000000|00000000|--------|

Chorus (2:29)
G|--------|--------|--------|--------|
D|--------|--------|--------|--------|
A|--------|33333333|55555555|--------|
E|00000000|--------|--------|33332222|

G|--------|--------|--------|--------|
D|--------|--------|--------|------24|
A|--------|00000000|33333333|222222--|
E|00000000|--------|--------|--------|

G|--------|--------|------75|--------|
D|--------|--------|--------|55554444|
A|--------|33333333|555555--|--------|
E|00000000|--------|--------|--------|

G|--------|22222222|--------|--------|
D|22222222|--------|--------|--------|
A|--------|--------|33333333|22222222|
E|--------|--------|--------|--------|

G|--------|--------|
D|--------|--------|
A|------02|33--55--|
E|000023--|--------|

G|--------|--------|--------|--------|
D|--------|--------|--------|--------|
A|------02|33332222|------02|33--55--| 2x
E|000023--|--------|000023--|--------|

Добавлено: 27.03.2012
Другие материалы по этой песне:
  • Аккорды и текст

Страница создана 27.03.2012
http://primanota.ru/fraeulein-wunder/sternradio-chords.htm
Привет, Гость.
Предлагаем пройти революционный курс по гитаре.
Подарок от PrimaNota.Ru, забирай!