PrimaNota.ru - самый крупный в мире бесплатный архив песенных текстов, аккордов, табулатур и нот


Fraeulein Wunder - Sos - бас-таба, видео

Регистрация Запомнить меня
Войти через:  Facebook Google Twitter Vk Yandex Mail.ru

Fraeulein Wunder - Sos - бас-таба, видео

Печатать
Просмотров: 143
Уроки эстрадного вокала в Санкт-Петербурге
Vers (0:22)
G|----------------|----------------|----------------|--------|
D|----------------|2222222222222222|4444444422222222|--------|
A|2222222222222222|----------------|----------------|22222222| 
E|----------------|----------------|----------------|--------|

G|----------------|----------------|2222222222222242|--------22222242|--------|
D|----------------|22222222222222--|----------------|222222----------|--------|
A|2222222222222252|--------------20|----------------|------20--------|22222222|
E|----------------|----------------|----------------|----------------|--------|

Chorus (0:53)
G|----------------|----------------|
D|----------------|----------------|
A|55555555--------|----------------|
E|--------55555555|0000000077777777|

G|----------------|----------------|
D|----------------|----------------|
A|----------------|----------------|
E|3333333333333333|5555555555555555|

Vers (1:12)
G|----------------|----------------|----------------|--------|
D|----------------|2222222222222222|4444444422222222|--------|
A|2222222222222222|----------------|----------------|22222222| 
E|----------------|----------------|----------------|--------|

G|----------------|----------------|2-2-2-2-2-2-2-42|--------2-2-2-42|--------|
D|----------------|2-2-2-2-2-2-2---|----------------|2-2-2-----------|--------|
A|2-2-2-2-2-2-2-52|--------------20|----------------|------20--------|2-------|
E|----------------|----------------|----------------|----------------|--------|

Chorus (1:43) 2x
G|----------------|----------------|
D|----------------|----------------|
A|55555555--------|----------------|
E|--------55555555|0000000077777777|

G|----------------|----------------|
D|----------------|----------------|
A|----------------|----------------|
E|3333333333333333|5555555555555555|

Bridge (2:15)
G|----------------|----------------|
D|----------------|----------------| 
A|6------64-------|2------2--2-2---|   2x
E|----------------|----------------|

G|----------------|----------------|
D|----------------|----------------| 
A|----------------|--------44444444|   2x
E|4444444466666666|77777777--------|

Outro (2:48) 2x
G|----------------|----------------|
D|----------------|----------------| 
A|6664666466646666|---------------2|
E|----------------|444444444444444-|

G|----------------|----------------|
D|----------------|----------------| 
A|4444444244444444|----------------|
E|----------------|4444444444444444|

Last Outro (3:18)
G|----------------|----------------|
D|----------------|----------------| 
A|6664666466646666|---------------2|
E|----------------|444444444444444-|

G|----------------|----------------|
D|----------------|----------------| 
A|4444444244444444|----------------|
E|----------------|4~-----46~------|

G|----------------|
D|----------------|
A|6~--------------|
E|----------------|
Добавлено: 29.05.2012
Другие материалы по этой песне:
  • Аккорды и текст

Страница создана 29.05.2012
http://primanota.ru/fraeulein-wunder/sos-chords.htm
Привет, Гость.
Предлагаем пройти революционный курс по гитаре.
Подарок от PrimaNota.Ru, забирай!