PrimaNota.ru - самый крупный в мире бесплатный архив песенных текстов, аккордов, табулатур и нот


Fraeulein Wunder - Panzerboy - бас-таба, видео

Регистрация Запомнить меня
Войти через:  Facebook Google Twitter Vk Yandex Mail.ru

Fraeulein Wunder - Panzerboy - бас-таба, видео

Печатать
Просмотров: 104
Vers (0:25)
G|--------|--------|--------|--------|
D|--------|--------|--------|--------|
A|--------|-2222-1-|00000---|-5555-6-|  2x
E|00000---|--------|--------|--------|  

Pre-Chorus (0:37)
G|--------|--------|--------|--------|
D|--------|--------|--------|--------|
A|3~------|2~------|5~------|--------|
E|--------|--------|--------|--------|

G|--------|--------|--------|--------|
D|--------|--------|--------|--------|
A|3~------|0~------|2~------|--------|
E|--------|--------|--------|--------|

Chorus (0:50)
G|--------|--------|--------|--------|
D|--------|--------|--------|--------|
A|33333-2-|00000---|55555---|22-22-2-|  3x
E|--------|--------|--------|--------|

G|--------|--------|--------|--------|
D|--------|--------|--------|--------|
A|--------|33333-2-|00000---|55555-6-|
E|0---0-0-|--------|--------|--------|

G|--------|--------|--------|--------|
D|--------|--------|--------|--------|
A|--------|33333-2-|00000---|55555555|
E|0---0-0-|--------|--------|--------|

G|--------|--------|--------|--------|
D|--------|--------|--------|--------|
A|--------|--------|--------|--------|
E|0~------|--------|--------|--------|

Vers (1:28)
G|--------|--------|--------|--------|
D|22222---|--------|--------|-0000-1-|
A|--------|-2222-1-|00000---|--------| 4x
E|--------|--------|--------|--------|

Pre-Chorus (1:53)

Chorus (2:06) 2x

End (3:09)
G|--------|
D|--------|
A|--------|
E|0~------|
Добавлено: 22.06.2012
Другие материалы по этой песне:
  • Аккорды и текст

Страница создана 22.06.2012
http://primanota.ru/fraeulein-wunder/panzerboy-chords.htm
Привет, Гость.
Предлагаем пройти революционный курс по гитаре.
Подарок от PrimaNota.Ru, забирай!