PrimaNota.ru - самый крупный в мире бесплатный архив песенных текстов, аккордов, табулатур и нот


Fraeulein Wunder - Mein Herz Ist Keine Wohnung - бас-таба, видео

Регистрация Запомнить меня
Войти через:  Facebook Google Twitter Vk Yandex Mail.ru

Fraeulein Wunder - Mein Herz Ist Keine Wohnung - бас-таба, видео

Печатать
Просмотров: 102
Vers (0:01)
G|----------------|----------------|
D|----------------|----------------|
A|----------------|-----------0----|  7x
E|2-2-2-2-2-2-2-2-|2-2-2-2-2---2-0-| 

G|----------------|----------------|
D|----------------|----------------|
A|----------------|----------------|
E|----------------|----------------|

Chorus (0:42)
G|----------------|----------------|
D|----------------|----------------|
A|55555555555554--|----------------|  3x
E|--------------5-|2222222222222222|

G|----------------|----------------|
D|----------------|----------------|
A|2222222222222222|0000000000000000|
E|----------------|----------------|

Vers (1:02)
G|----------------|----------------|
D|----------------|----------------|
A|----------------|-----------0----|  3x
E|2-2-2-2-2-2-2-2-|2-2-2-2-2---2-0-| 

G|----------------|----------------|
D|----------------|----------------|
A|----------------|-----------4555-|
E|2222222222222222|22222222222-----|

Chorus (1:23) 2x

Bridge (2:03)
G|----------------|----------------|
D|5~--------------|----------------|
A|----------------|----------------|
E|----------------|----------------|

G|----------------|----------------|
D|3~--------------|----------------|
A|----------------|----------------|
E|----------------|----------------|

G|----------------|----------------|
D|0~--------------|----------------|
A|----------------|----------------|
E|----------------|----------------|

G|----------------|----------------|
D|----------------|----------------|
A|----------------|----------------|
E|2222222222222222|2222222222222222|

Chorus (2:24) 2x

Last Chorus (3:05)
G|----------------|----------------|
D|----------------|----------------|
A|55555555555554--|----------------|  3x
E|--------------5-|2222222222222222|

G|----------------|----------------|
D|----------------|----------------|
A|2222222222222222|0---------------|
E|----------------|----------------|


Добавлено: 08.03.2012
Другие материалы по этой песне:
  • Аккорды и текст

Страница создана 08.03.2012
http://primanota.ru/fraeulein-wunder/mein-herz-ist-keine-wohnung-chords.htm
Привет, Гость.
Предлагаем пройти революционный курс по гитаре.
Подарок от PrimaNota.Ru, забирай!