PrimaNota.ru - самый крупный в мире бесплатный архив песенных текстов, аккордов, табулатур и нот


Fraeulein Wunder - Jeden Tag - бас-таба, видео

Регистрация Запомнить меня
Войти через:  Facebook Google Twitter Vk Yandex Mail.ru

Fraeulein Wunder - Jeden Tag - бас-таба, видео

Печатать
Просмотров: 108
Уроки эстрадного вокала в Санкт-Петербурге
Intro (0:04)
G|--------|--------|--------|--------|
D|--------|--------|--------|--------|
A|2--2----|----0-0-|2--2----|--------| 
E|----2--2|3--3----|----2--2|3--32-0-|

Vers (0:13)
G|--------|--------|--------|--------|
D|--------|--------|--------|--------|
A|2--2----|----0-0-|2--2----|--------|  2x
E|----2--2|3--3----|----2--2|3--32-0-|

Pre-Chorus (0:31)
G|--------|--------|--------|----|
D|--------|--------|--------|----|
A|--------|--------|--------|----|
E|3-------|5-------|2-------|----|

Chorus (0:39)
G|--------|--------|--------|--------|
D|--------|44444444|--------|--------|
A|55555555|--------|22222222|0000----|
E|--------|--------|--------|----3333|

G|--------|--------|--------|--------|
D|--------|44444444|--------|--------|
A|55555555|--------|--------|--------|
E|--------|--------|33333333|55555555|

Vers (0:59)
G|--------|--------|--------|--------|
D|--------|--------|--------|--------|
A|2--2----|----0-0-|2--2----|--------|  2x
E|----2--2|3--3----|----2--2|3--32-0-|

Pre-Chorus (1:16)
G|--------|--------|--------|
D|--------|--------|--------|
A|--------|--------|--------|
E|3-------|5-------|2-------|

Chorus (1:23) 2x
G|--------|--------|--------|--------|
D|--------|44444444|--------|--------|
A|55555555|--------|22222222|0000----|
E|--------|--------|--------|----3333|

G|--------|--------|--------|--------|
D|--------|44444444|--------|--------|
A|55555555|--------|--------|--------|
E|--------|--------|33333333|55555555|

Bridge (1:59)
G|--------|--------|--------|--------|
D|--------|--------|--------|--------|
A|--------|--------|2-------|--------|
E|3-------|5-------|--------|3-------|

G|--------|--------|--------|--------|--------|--------|
D|--------|--------|--------|--------|--------|--------|
A|--------|--------|7-------|--------|--------|--------|
E|3-------|5-------|--------|--------|2-------|--------|

Chorus (2:30) 2x

End (3:06)
G|--------|
D|--------|
A|--------|
E|5-------|
Добавлено: 29.05.2012
Другие материалы по этой песне:
  • Аккорды и текст

Страница создана 29.05.2012
http://primanota.ru/fraeulein-wunder/jeden-tag-chords.htm
Привет, Гость.
Предлагаем пройти революционный курс по гитаре.
Подарок от PrimaNota.Ru, забирай!