PrimaNota.ru - самый крупный в мире бесплатный архив песенных текстов, аккордов, табулатур и нот


Fraeulein Wunder - Ich Wuerd Dich Liebend Gerne Lieben - бас-таба, видео

Регистрация Запомнить меня
Войти через:  Facebook Google Twitter Vk Yandex Mail.ru

Fraeulein Wunder - Ich Wuerd Dich Liebend Gerne Lieben - бас-таба, видео

Печатать
Просмотров: 111
Intro (0:00)
G|--7-----|--7-----|--------|--------|--------|--------|--7-----|-7------|
D|55-5----|55-5----|--7-----|--7-----|--5-----|--5-----|55-5----|--55-5--|
A|--------|--------|55-5----|55-5----|33-3----|33-3----|--------|--------|
E|--------|--------|--------|--------|--------|--------|--------|--------|

Vers (0:13)
G|--7-----|--7-----|--------|--------|--------|--------|--7-----|-7------|
D|55-5----|55-5----|--7-----|--7-----|--5-----|--5-----|55-5----|5-55-5--|
A|--------|--------|55-5----|55-5----|33-3----|33-3----|--------|--------|
E|--------|--------|--------|--------|--------|--------|--------|--------|

G|--7-----|--7-----|--------|--------|--------|--------|--------|
D|55-5----|55-5----|--7-----|--7-----|--5-----|--5-----|--------|
A|--------|--------|55-5----|55-5----|33-3----|33-3----|3\------|
E|--------|--------|--------|--------|--------|--------|--------|

Chorus (0:39)
G|--7-----|--7-----|--------|--------|--------|--------|--7-----|-7------|
D|55-5----|55-5----|--7-----|--7-----|--5-----|--5-----|55-5----|--55-5--|
A|--------|--------|55-5----|55-5----|33-3----|33-3----|--------|--------|
E|--------|--------|--------|--------|--------|--------|--------|--------|

G|--7-----|--7-----|--------|--------|--------|--------|--7-----|--10-----|
D|55-5----|55-5----|--7-----|--7-----|--5-----|--5-----|55-5---5|88--8-8--|
A|--------|--------|55-5----|55-5----|33-3----|33-3----|--------|---------|
E|--------|--------|--------|--------|--------|--------|--------|---------|

Vers (1:07)
G|--7-----|--7-----|--------|--------|--------|--------|--7-----|-7------|
D|55-5----|55-5----|--7-----|--7-----|--5-----|--5-----|55-5----|--55-5--|
A|--------|--------|55-5----|55-5----|33-3----|33-3----|--------|--------|
E|--------|--------|--------|--------|--------|--------|--------|--------|

G|--7-----|--7-----|--------|--------|--------|--------|--------|
D|55-5----|55-5----|--7-----|--7-----|--5-----|--5-----|--------|
A|--------|--------|55-5----|55-5----|33-3----|33-3----|3\------|
E|--------|--------|--------|--------|--------|--------|--------|

Chorus (1:32)
G|--7-----|--7-----|--------|--------|--------|--------|--7-----|-7------|
D|55-5----|55-5----|--7-----|--7-----|--5-----|--5-----|55-5----|--55-5/-|
A|--------|--------|55-5----|55-5----|33-3----|33-3----|--------|--------|
E|--------|--------|--------|--------|--------|--------|--------|--------|

G|--7-----|--7-----|--------|--------|--------|--------|--7-----|--10-----|
D|55-5----|55-5----|--7-----|--7-----|--5-----|--5-----|55-5---5|88--8-8-8|
A|--------|--------|55-5----|55-5----|33-3----|33-3----|--------|---------|
E|--------|--------|--------|--------|--------|--------|--------|---------|

G|----12------|----12------|--10-----|--10-----|
D|1010--10----|1010--10----|88--8----|88--8----|
A|------------|------------|---------|---------|
E|------------|------------|---------|---------|

Bridge (2:05)
G|--------|--------|--------|--------|--------|--------|--------|--------|
D|--------|--------|--------|--------|--------|--------|--------|--------|
A|55555555|--------|--------|-----/57|5555-555|--------|--------|--------|
E|--------|55555555|66666666|66666---|--------|55555555|8~------|--------|

Chorus (2:19)
G|--7-----|--7-----|--------|--------|--------|--------|--7-----|-7------|
D|55-5----|55-5----|--7-----|--7-----|--5-----|--5-----|55-5----|5-55-5-5|
A|--------|--------|55-5----|55-5----|33-3----|33-3----|--------|--------|
E|--------|--------|--------|--------|--------|--------|--------|--------|

G|--7-----|--7-----|--------|--------|--------|--------|--7-----|--10-----|
D|55-5----|55-5----|--7-----|--7-----|--5-----|--5-----|55-5---5|88--8-8-8|
A|--------|--------|55-5----|55-5\---|33-3----|33-3----|--------|---------|
E|--------|--------|--------|--------|--------|--------|--------|---------|

G|--7-----|--7-----|--------|--------|--------|--------|--7-----|-7------|
D|55-5----|55-5----|--7-----|--7-----|--5-----|--5-----|55-5----|5-55-5-5|
A|--------|--------|55-5----|55-5\---|33-3----|33-3----|--------|--------|
E|--------|--------|--------|--------|--------|--------|--------|--------|

G|--7-----|--7-----|--------|--------|--------|--------|--7-----|--10-----|
D|55-5----|55-5----|--7-----|--7-----|--5-----|--5-----|55-5---5|88--8---8|
A|--------|--------|55-5----|55-5----|33-3----|33-3----|--------|---------|
E|--------|--------|--------|--------|--------|--------|--------|---------|

G|----12------|----12------|--10-----|--10-----|
D|1010--10----|1010--10----|88--8----|88--8----|
A|------------|------------|---------|---------|
E|------------|------------|---------|---------|
Добавлено: 29.05.2012
Другие материалы по этой песне:
  • Аккорды и текст

Страница создана 29.05.2012
http://primanota.ru/fraeulein-wunder/ich-wuerd-dich-liebend-gerne-lieben-chords.htm
Привет, Гость.
Предлагаем пройти революционный курс по гитаре.
Подарок от PrimaNota.Ru, забирай!