PrimaNota.ru - самый крупный в мире бесплатный архив песенных текстов, аккордов, табулатур и нот


Fraeulein Wunder - Ich Kann Nichts Mehr Spueren - бас-таба, видео

Регистрация Запомнить меня
Войти через:  Facebook Google Twitter Vk Yandex Mail.ru

Fraeulein Wunder - Ich Kann Nichts Mehr Spueren - бас-таба, видео

Печатать
Просмотров: 100
Уроки эстрадного вокала в Санкт-Петербурге
Intro (0:11)
G|----------------|----------------|
D|----------------|----------------|
A|-------2--2-2-2-|0---0-0---------|  2x
E|0---0-0---------|-------3--3-3-3-|

Vers (0:23)
G|----------------|----------------|----------------|----------------|
D|----------------|----------------|----------------|----------------|
A|----------------|2~--------------|0~--------------|----------------| 3x
E|0~--------------|----------------|----------------|3~--------------|

Chorus (0:56)
G|----------------|----------------|----------------|----------------|
D|----------------|----------------|----------------|----------------|
A|----------------|----------------|2-2-2-2-2-2-2-2-|0-0-0-0-0-0-0-0-| 2x
E|0-0-0-0-0-0-0-0-|3-3-3-3-3-3-3-3-|----------------|----------------|

G|----------------|----------------|
D|----------------|----------------|
A|-------2--2-2-2-|0---0-0---------|  2x
E|0---0-0---------|-------3--3-3-3-|

Vers (1:30)
G|----------------|----------------|----------------|----------------|
D|----------------|----------------|----------------|----------------|
A|----------------|2~--------------|0~--------------|----------------| 2x
E|0~--------------|----------------|----------------|3~--------------|

G|----------------|----------------|----------------|----------------|
D|----------------|----------------|----------------|----------------|
A|----------------|2-2-2-2-2-2-2-2-|0-0-0-0-0-0-0-0-|----------------| 
E|0-0-0-0-0-0-0-0-|----------------|----------------|----------------|

Chorus (2:04)
G|----------------|----------------|----------------|----------------|
D|----------------|----------------|----------------|----------------|
A|----------------|----------------|2-2-2-2-2-2-2-2-|0-0-0-0-0-0-0-0-| 2x
E|0-0-0-0-0-0-0-0-|3-3-3-3-3-3-3-3-|----------------|----------------|

Solo (2:27)
G|----------------|----------------|----------------|----------------|
D|----------------|----------------|----------------|----------------|
A|2-2-2-22--2-2-2-|----------------|----------------|0-0-0-00--0-0-0-| 2x
E|----------------|3-3-3-33--3-3-3-|0-0-0-00--0-0-0-|----------------|

Bridge (2:49)
G|----------------|----------------|----------------|----------------|
D|----------------|----------------|----------------|----------------|
A|----------------|2~--------------|0~--------------|----------------|
E|0~--------------|----------------|----------------|3~--------------|

G|----------------|----------------|----------------|----------------|
D|----------------|----------------|----------------|----------------|
A|----------------|2-2-2-2-2-2-2-2-|0-0-0-0-0-0-0-0-|----------------| 
E|0-0-0-0-0-0-0-0-|----------------|----------------|3-3-3-3-3-3-3-3-|

G|----------------|----------------|----------------|----------------|
D|----------------|----------------|----------------|----------------|
A|----------------|2-2-2-2-2-2-2-2-|0-0-0-0-0-0-0-0-|----------------| 
E|0-0-0-0-0-0-0-0-|----------------|----------------|3---------------|

Chorus (3:23)
G|----------------|----------------|----------------|----------------|
D|----------------|----------------|----------------|----------------|
A|----------------|----------------|2-2-2-2-2-2-2-2-|0-0-0-0-0-0-0-0-| 2x
E|0-0-0-0-0-0-0-0-|3-3-3-3-3-3-3-3-|----------------|----------------|

G|----------------|----------------|
D|----------------|----------------|
A|-------2-22-2-2-|0-0-0-0---------|  4x
E|0-0-0-0---------|-------3-33-3-3-|

G|----------------|
D|----------------|
A|----------------|
E|0~--------------|
Добавлено: 21.04.2012
Другие материалы по этой песне:
  • Аккорды и текст

Страница создана 21.04.2012
http://primanota.ru/fraeulein-wunder/ich-kann-nichts-mehr-spueren-chords.htm
Привет, Гость.
Предлагаем пройти революционный курс по гитаре.
Подарок от PrimaNota.Ru, забирай!