PrimaNota.ru - самый крупный в мире бесплатный архив песенных текстов, аккордов, табулатур и нот


Fraeulein Wunder - Hey Hey - бас-таба, видео

Регистрация Запомнить меня
Войти через:  Facebook Google Twitter Vk Yandex Mail.ru

Fraeulein Wunder - Hey Hey - бас-таба, видео

Печатать
Просмотров: 107
Intro (0:02)
G|--------|--------|--------|--------|
D|--------|--------|--------|--------|
A|--------|--------|11111111|44444444|   2x
E|22222222|44444444|--------|--------|

Vers (0:15)
G|--------|--------|--------|--------|
D|--------|--------|1111----|--------|
A|1111----|--------|--------|--------|   2x
E|--------|2222----|--------|4444----|

G|--------|--------|--------|--------|
D|--------|--------|--------|--------|
A|--------|--------|--------|--------|
E|2222----|2222----|4444----|--------|

Chorus (0:36)
G|--------|--------|--------|--------|
D|--------|--------|--------|--------|
A|--------|--------|11111111|44444444|   2x
E|22222222|44444444|--------|--------|

G|--------|--------|--------|--------|
D|--------|--------|44444444|44444444|
A|66666666|66666666|--------|--------|
E|--------|--------|--------|--------|

Vers (1:01)
G|--------|--------|-----8--|--------|
D|-----3--|--------|--------|--------|
A|1111----|-----4--|6666----|-----4--|   2x
E|--------|2222----|--------|4444----|

G|--------|--------|--------|--------|
D|--------|--------|--------|--------|
A|-----4--|-----4--|-----6--|--------|
E|2222----|2222----|4444----|--------|

Chorus (1:23)
G|--------|--------|--------|--------|
D|--------|--------|--------|--------|
A|--------|--------|11111111|44444444|   2x
E|22222222|44444444|--------|--------|

G|--------|--------|-----8--|--------|
D|-----3--|--------|--------|--------|
A|1111----|-----4--|6666----|-----4--|   2x
E|--------|2222----|--------|4444----|

Bridge (1:51)
G|--------|--------|--------|--------|
D|--------|--------|--------|--------|
A|--------|--------|--------|--------|
E|22222222|22222222|44444444|44444444|

G|--------|--------|--------|--------|
D|--------|--------|--------|--------|
A|--------|--------|--------|--------|
E|22222222|22222222|44444444|4-------|

Chorus (2:05)
G|--------|--------|--------|--------|
D|--------|--------|--------|--------|
A|--------|--------|11111111|44444444|   4x
E|22222222|44444444|--------|--------|

G|--------|--------|--------|--------|
D|--------|--------|44444444|44444444|
A|66666666|66666666|--------|--------|
E|--------|--------|--------|--------|
Добавлено: 26.03.2012
Другие материалы по этой песне:
  • Аккорды и текст

Страница создана 26.03.2012
http://primanota.ru/fraeulein-wunder/hey-hey-chords.htm
Привет, Гость.
Предлагаем пройти революционный курс по гитаре.
Подарок от PrimaNota.Ru, забирай!