PrimaNota.ru - самый крупный в мире бесплатный архив песенных текстов, аккордов, табулатур и нот


Fraeulein Wunder - Eiskaltes Monster - таба, видео

Регистрация Запомнить меня
Войти через:  Facebook Google Twitter Vk Yandex Mail.ru

Fraeulein Wunder - Eiskaltes Monster - таба, видео

Печатать
Просмотров: 119
-------------------------------------------------------------------------------
                     Fräulein Wunder - Eiskaltes Monster
-------------------------------------------------------------------------------

Tabbed by: -Josii-
Email: crazyrockgirl@web.de

Page: www.myspace.com/killermauz




Capo 2nd fret

Intro                              
e--10-------10--11----11----10-------10--9--------9------|--
B-----10-----------10----10----10----------10------------|--
G--------11-----------------------11----------9----------|--
D--------------------------------------------------------|--
A--------------------------------------------------------|--
E--------------------------------------------------------|--


e--10-------10--11----11----9----------9--|--
B-----10-----------10----10---10------10--|--
G--------11----------------------9-----9--|--
D-------------------------------------11--|--
A-----------------------------------------|--
E-----------------------------------------|--






Verse 1:
 
(3x)      Am          Em          C           C/B            
     e-----------|-----------|----------|---------------|--
     B------1----|------0----|-----1----|-------1--0----|--
     G--------2--|--------0--|-------0--|------------0--|--
     D----2------|----2------|---2------|----2----------|--
     A--0--------|--2--------|--3-------|--2------------|--
     E-----------|-----------|----------|---------------|--


(4th time this:)

      Am         Em        
e-----------|-----------|
B------1----|------0----|       (Chords)
G--------2--|--------0--|
D----2------|----2------|--- F --- Em --- G ---
A--0--------|--2--------|
E-----------|-----------|




CHorus:

 C          Em
Herzloses Mädchen,
 Am         Em
eiskaltes Monster
 C               Am        Em      G
Verzweifelnde Blicke ins Herz
 C          Em
Herzloses Mädchen,
 Am         Em
eiskaltes Monster
 C                Am            Em      G
Hörst du mich, fühlst du den Schmerz



--Verse 2-- (same like Verse 1)


--Chorus--


Bridge:

 F                   C
Wie eine schwarze Witwe
 G
Zog sie mich in ihren Bann
 F                      C
Ich wollt noch um sie kämpfen
 G
Doch ich kam nicht mehr an sie ran
 F                            C
Ich hab gedacht, wir wären unendlich
 G
Doch sie ließ mich einfach los


--chorus--


Outro:

 C                 Em               Am
Denkst du echt ich hab dich verarscht
                   Em               C
Es tut mir leid so war's nicht geplant
                   Am          Em
Es war das scheiß Monster in mir
 G
Es war das scheiß Monster in mir (Hörst du mich)
 C                  Em             Am
Denkst du echt ich hab dich verarscht
                    Em             C
Es tut mir leid so war's nicht geplant (Hörst du mich)
                    Am        Em
Es war das scheiß Monster in mir
 G
Es war das scheiß Monster in mir (Hörst du mich)
 C                   Em             Am
Denkst du echt ich hab dich verarscht
                    Em             C
Es tut mir leid so war's nicht geplant (Hörst du mich)
                    Am        Em
Es war das scheiß Monster in mir
 G                   Am**
Es war das scheiß Monster in mir


     Am**          
e---------------|--
B-------1--0----|--
G------------2--|--
D----2----------|--
A--0------------|--
E---------------|--


_______________________________________________
Songtext:

(Verse 1)
Ich erzählte ihr von Liebe
Und ich spürte, sie fühlte es auch
Ich konnt' nicht ohne sie leben
Noch die vielen Küsse aufgebraucht
Ich wollte alles dafür geben
Denn geben konnte ich ihr viel
Ich liebte sie echt ohne Ende
Doch für sie war es nur ein Spiel

(Chorus)
Herzloses Mädchen,
eiskaltes Monster
Verzweifelnde Blicke ins Herz
Herzloses Mädchen,
eiskaltes Monster
Hörst du mich,
fühlst du den Schmerz

(Verse 2)
Ich dachte an die schönen Zeiten
Denn die gab es früher auch
Doch dann sah ich ihr in die Augen
Und sah, dass sie mich nicht mehr braucht
Ich wollte alles dafür geben
Sie zu behalten Tag für Tag.
Doch ich konnte dabei zusehen
Wie ihre Liebe zu mir brach

(Chorus)

(Verse 2)
Wie eine schwarze Witwe
Zog sie mich in ihren Bann
Ich wollt noch um sie kämpfen
Doch ich kam nicht mehr an sie ran
Ich hab gedacht, wir wären unendlich
Doch sie ließ mich einfach los

(Chorus)

(Outro)
Denkst du echt ich hab dich verarscht
Es tut mir leid so war's nicht geplant
Es war das scheiß Monster in mir
Es war das scheiß Monster in mir(Hörst du mich)

Denkst du echt ich hab dich verarscht
Es tut mir leid so war's nicht geplant(Hörst du mich)
Es war das scheiß Monster in mir
Es war das scheiß Monster in mir(Hörst du mich)

Denkst du echt ich hab dich verarscht
Es tut mir leid so war's nicht geplant(Hörst du mich)
Es war das scheiß Monster in mir
Es war das scheiß Monster in mir



Falls Ihr Fehler entdeckt, dann bitte einfach eine E-Mail oder bei Myspace schreiben! Danke =)

<3
Добавлено: 23.06.2012
Другие материалы по этой песне:
  • Аккорды и текст

Страница создана 23.06.2012
http://primanota.ru/fraeulein-wunder/eiskaltes-monster-chords.htm
Привет, Гость.
Предлагаем пройти революционный курс по гитаре.
Подарок от PrimaNota.Ru, забирай!