PrimaNota.ru - самый крупный в мире бесплатный архив песенных текстов, аккордов, табулатур и нот


Fra Lippo Lippi - Shouldnt Have To Be Like That - таба, бас-таба, видео

Регистрация Запомнить меня
Войти через:  Facebook Google Twitter Vk Yandex Mail.ru

Fra Lippo Lippi - Shouldnt Have To Be Like That - таба, бас-таба, видео

Печатать
Просмотров: 142
--------------------------------------------------------------------------
                      Fra Lippo Lippi - Shouldn't have to be like that
--------------------------------------------------------------------------
Tabbed by:Gary Elechicon
Email:rephlica@yahoo.com

Tuning:standard

Intro: F  G  Am
Guitar 1:

e|------------------------------------------------------------------------|
B|----------------------------8--8~~~-------------------------------------|
G|---9-9-------7-------------------------9-9------7-----------------------|
D|--------10------9----9h10-------------------10-----9---9h10-------------|
A|--------------------------------------------------------------7~~~~-----|
E|------------------------------------------------------------------------|

e|------------------------------------------------------------------------|
B|--------------------------8---8~~~~-------------------------------------|
G|---9-9------7-------------------------9-9-----7-------------------------|
D|--------10-----9----9h10------------------10-----9---9h10---7~~~--------|
A|------------------------------------------------------------------------|
E|------------------------------------------------------------------------|

Guitar 2:

e|-------------------------------------------------------------------------|
B|-10--12-13-12---10------10--12-----------10--12-13-12--10---10-12----10~~|
G|--------------------12---------12--9~~--------------------12-------12----|
D|-------------------------------------------------------------------------|
A|-------------------------------------------------------------------------|
E|-------------------------------------------------------------------------|

Verse I:

It's always like this
people I know read many books and save every dream
with all of their hope buried inside, somewhere
somewhere a man cries for his love
a love that is lost and withered too soon
with all of his hope buried inside, somewhere


Chorus Fill + Guitar 1
e|------------------------------------------------|
B|--10--12---10-----------------------------------|
G|---------------12---9~~-----12---9~~~-----------|
D|------------------------------------------------|
A|------------------------------------------------|
E|------------------------------------------------|

Chorus:
shouldn't have to be like that
shouldn't have to be like that
shouldn't have to be like that
shouldn't have to be like that

Verse II:
so all you can say is we need more time
to get through the things that need to be said
with all of our trust buried inside, somewhere
and even if it takes a lifetime of trust
to build something strong what happens to us?
with all our faith buried inside, somewhere

Chorus:
shouldn't have to be like that
shouldn't have to be like that
shouldn't have to be like that
shouldn't have to be like that




Intro,Verses and chorus and outro run through the same F G Am Chord

| /  slide up
| \  slide down
| h  hammer-on
| p  pull-off
| ~  vibrato
| +  harmonic
| x  Mute note
============================================================================
Добавлено: 27.03.2012
Другие материалы по этой песне:
  • Аккорды и текст

Страница создана 27.03.2012
http://primanota.ru/fra-lippo-lippi/shouldnt-have-to-be-like-that-chords.htm
Привет, Гость.
Предлагаем пройти революционный курс по гитаре.
Подарок от PrimaNota.Ru, забирай!