PrimaNota.ru - самый крупный в мире бесплатный архив песенных текстов, аккордов, табулатур и нот


F.p.g - Идиоты - аккорды и текст, видео

Регистрация Запомнить меня
Войти через:  Facebook Google Twitter Vk Yandex Mail.ru

F.p.g - Идиоты - аккорды и текст, видео

Печатать
Просмотров: 510
Идиоты
F.p.g
Хули делать-то ебашь
1.
4---4---------------7---------------------
5---2---------------5----------4-------
6--------------------------------2---------
Мы отдыхаем и водку дуем
Охуеваем но не быкуем
Себя нещадно мы убиваем
Мы наливаем выпиваем
Соседи в шоке хозяин воет
А нас колбасит, нас не остановишь
Звенят стаканы в них водка льется
Скрипят диваны, посуда бьется
2.
3---------------------------------------------6--5---------
4---------------------------7----------------4--3-------------
5---5----------------------5-----------------------------------
6---3----------------------------------------------------
А чья же водка, бля мы сами не знаем
3-------------------------------------------6--5
4---4--------------------------------------4--3
5---2-------------------------------------------------
6---------------------------------------------------------
Ведем себя как идиоты все отрицаем
1
Не беспокойся, увидев срач
Входи не бойся, уйдешь, не плачь
Ты молода, ты так наивна
Так соблазнительно невинна
Иди сюда бля, я буду нежен
Снимая медленно одежду
Я обнажаю твою кожу
Одежду на пол, невинность тоже

Мочи сука
Соло:
2
Я убегаю, веду себя как идиот и все отрицаю
1
Идем в атаку, в поход за водкой
Устроим драку, порвем всем глотки
Не выебайся, ты дубина
Понтам дешевым, цена могила
Ебашим дальше, сменя бухло
Кого-то сунут всем в ебло
Ментыы засада, не ссать прорвемся
Нас хуй догонят, не сдаемся
2
Патруль возмет, не залажаем, ведем себя как идиоты, все отрицаем
Соло:
1
Мы отдыхаем и водку дуем
Все посылаем на хуй с хуем
С утра встаем и воем дружно
Да сколько можно
Да сколько нужно 
Вся наша жизнь, дебоши, пьянство
Марихуана, хулиганство
Бояться смерти, да чего ради
Она всегда левей, чуть сзади
2
Давно нас ждет, а мы играем
Ведем себя как идиоты, все отрицаем 

СОЛО играется где-то на пентатоне В с 6-ого лада
Добавлено: 29.01.2014
Другие материалы по этой песне:
  • Аккорды и текст

Страница создана 14.11.2013
http://primanota.ru/fpg/idioty-chords.htm
Привет, Гость.
Предлагаем пройти революционный курс по гитаре.
Подарок от PrimaNota.Ru, забирай!