PrimaNota.ru - самый крупный в мире бесплатный архив песенных текстов, аккордов, табулатур и нот


Fozzy - Sandpaper - таба, видео

Регистрация Запомнить меня
Войти через:  Facebook Google Twitter Vk Yandex Mail.ru

Fozzy - Sandpaper - таба, видео

Печатать
Просмотров: 166
-------------------------------------------------------------------------------
                             Sandpaper - Fozzy ft. M.Shadows
-------------------------------------------------------------------------------
Tabbed by: Dirk Vissers
E-mail: dirkvissers@hotmail.com

This time in Drop-D and some errors adjusted.
Pretty close this time:) Please comment and rate!

Tuning:
DADGBe

e|-------------------------------------------------------------|
B|-------------------------------------------------------------|
G|-------------------------------------------------------------|
D|-0h2-----0h2-----0h2-----5/7----0h2-----0h2-----0h2------5-0-|2x
A|-0h2-----0h2-----0h2-----5/7----0h2-----0h2-----0h2------5-0-|
D|-0h2-xxx-0h2-xxx-0h2-xxx-5/7----0h2-xxx-0h2-xxx-0h2-xxx--5-0-|

e|-------------------------------------|
B|-------------------------------------|
G|-55555555-77777777-44444444-55555555-|
D|-55555555-77777777-44444444-55555555-|
A|-33333333-55555555-22222202-33333333-|
D|-------------------------------------|

e|-----------------------------------------------|
B|-----------------------------------------------|
G|-55555555-77777777-44444444-55555555-----------|
D|-55555555-77777777-44444444-55555555---0---0-2-|
A|-33333333-55555555-22222202-55555555---0---0-2-|
D|-------------------------------------x-0-x-0-2-|

e|-----------------------------------------------------------------------------|
B|-----------------------------------------------------------------------------|
G|-----------------------------------------------------------------------------|
D|-0h2-----0h2-----0h2--------2--2--3---0h2-----0h2-----0h2--------2--2--3--2\-|
A|-0h2-----0h2-----0h2------22-22-22----0h2-----0h2-----0h2------22-22-22---2\-|
D|-0h2-xxx-0h2-xxx-0h2-xxx-2------------0h2-xxx-0h2-xxx-0h2-xxx-2-----------2\-|

e|------------------------------|
B|------------------------------|
G|------------------------------|
D|---0-2\-------0-2\-------0-2\-|
A|---0-2\-------0-2\-------0-2\-|
D|-x-0-2\-----x-0-2\-----x-0-2\-|

e|-------------------------------------|
B|-------------------------------------|
G|-55555555-77777777-44444444-55555555-|
D|-55555555-77777777-44444444-55555555-|
A|-33333333-55555555-22222202-33333333-|
D|-------------------------------------|

e|----------------------------------------------|
B|----------------------------------------------|
G|-55555555-77777777-44444444-55555555----------|
D|-55555555-77777777-44444444-55555555----0---0-|
A|-33333333-55555555-22222202-33333333----0---0-|
D|--------------------------------------x-0-x-0-|


e|--77/88------------------77/88---------------|
B|--xx-xx-12-12br-10~-8-7~-xx-xx-12-12br-10~~--|
G|--44/55------------------44/55---------------|  2X
D|---------------------------------------------|
A|---------------------------------------------|
D|---------------------------------------------|

e|---------------------|
B|--7--7br-5~-5h7p5\3--|
G|---------------------|
D|---------------------|
A|---------------------|
D|---------------------|

e|-------------------------------------|
B|-------------------------------------|
G|-55555555-77777777-44444444-55555555-|
D|-55555555-77777777-44444444-55555555-|
A|-33333333-55555555-22222202-33333333-|
D|-------------------------------------|

e|-------------------------------------|
B|-------------------------------------|
G|-55555555-77777777-44444444-55555555-|
D|-55555555-77777777-44444444-55555555-|
A|-33333333-55555555-22222202-33333333-|
D|-------------------------------------|

e|-------------------------------------|
B|-------------------------------------|
G|-55555555-77777777-44444444-55555555-|
D|-55555555-77777777-44444444-55555555-|
A|-33333333-55555555-22222202-33333333-|
D|-------------------------------------|

e|----------------------------------------------|
B|----------------------------------------------|
G|-55555555-77777777-44444444-55555555----------|
D|-55555555-77777777-44444444-55555555----0---0-|
A|-33333333-55555555-22222202-33333333----0---0-|
D|--------------------------------------x-0-x-0-|

e|-------------------------------------------------------------------------|
B|-------------------------------------------------------------------------|
G|-------------------------------------------------------------------------|
D|-0h2-----0h2-----0h2--------2--2--3---0h2-----0h2-----0h2--------2--2--3-|
A|-0h2-----0h2-----0h2------22-22-22----0h2-----0h2-----0h2------22-22-22--|
D|-0h2-xxx-0h2-xxx-0h2-xxx-2------------0h2-xxx-0h2-xxx-0h2-xxx-2----------|

e|-----------------------------------|
B|-----------------------------------|
G|---------------------------------2-|
D|-22---2--2--2--3---22---2--3--5----|  3X
A|-22-22-22-22-22----22-22-22-22-22--|
D|-22----------------22--------------|

e|-------------------------------|
B|-------------------------------|
G|-------------------------------|
D|-22---2--2--2--2---22---2------|
A|-22-22-22-22-22----22-22-20----|
D|-22----------------22------2---|



************************************

| /   slide up
| \   slide down
| h   hammer-on
| p   pull-off
| ~   vibrato
| +   harmonic
| x   Mute note
| b   Bend
| pb  Pre-bend
| br  Bend release
| pbr Pre-bend release
| brb Bend release bend

************************************
Добавлено: 20.07.2013
Другие материалы по этой песне:

Страница создана 20.07.2013
http://primanota.ru/fozzy/sandpaper-chords.htm
Привет, Гость.
Предлагаем пройти революционный курс по гитаре.
Подарок от PrimaNota.Ru, забирай!