PrimaNota.ru - самый крупный в мире бесплатный архив песенных текстов, аккордов, табулатур и нот


Fozzy - Martyr No More - таба, видео

Регистрация Запомнить меня
Войти через:  Facebook Google Twitter Vk Yandex Mail.ru

Fozzy - Martyr No More - таба, видео

Печатать
Просмотров: 138
Уроки эстрадного вокала в Санкт-Петербурге
-------------------------------------------------------------------------------
                            MARTYR NO MORE - Fozzy
-------------------------------------------------------------------------------
Tabbed by:MilesAK
E-mail:MilesAK@hotmail.co.uk

Tuning: Drop c(CGCFAD)

Intro/Chorus:

d|-------------------------------------------------------------------------------------------|
A|-------------------------------------------------------------------------------------------|
F|-------------------------------------------------------------------------------------------|
C|-----------------------------10------------------------------------------------------------|
G|-0-0-3-------------------------------------------0-0-3-------------------5-------5---------|
C|-0-0---6-5-3~-0--12-10-12-13----13-12-10-12-10\--0-0---6-5-3~-0--0-3-5-6---6-5-3-5-3-------|

d|-------------------------------------------------------------------------------------------|
A|-------------------------------------------------------------------------------------------|
F|----------------------------------------------------------------3-3-3---5-5-3--------------|
C|----------------------------------------------------------------3-3-3-3-5-5-3-5------------|
G|-0-0-3-------------------------------------------0-0-3----------1-1-1-3-3-3-5-5------------|
C|-0-0---6-5-3~-0--12-10-12-13-12-10-12-10-12-10\--0-0---6-5-3~-0-------3-------5------------|

Verse:
                           x x x x                        x x x x
D|---------------------------------------------------------------------------|
A|---------------------------------------------------------------------------|
F|---------------------------------------------------------------------------|
C|---------------------------------------------------------------------------|
G|---------------------------------------------------------------------------|
C|-12h13-10-12h13-10-12h13-0-0-0-0--12h13-10-12~-10-12h13-0-0-0-0------------|
                           x x x x
d|---------------------------------------------------------------------------|
A|---------------------------------------------------------------------------|
F|---------------------------------3-3-3---5-5-5-----------------------------|
C|---------------------------------3-3-3-3-5-5-5-5---------------------------|
G|---------------------------------1-1-1-3-3-3-3-5---------------------------|
C|-12h13-10-12h13-10-12h13-0-0-0-0-------3-------5---------------------------|

Bridge (Prechorus):

d|---------------------------------------------------------------------------|
A|---------------------------------------------------------------------------|
F|---------------------------------------------------------------------------|
C|-777-8-8-888-3333-3-10101010-10------777-8-8--8-8--------------------------|
G|-777-8-8-888-3333-3-10101010-10-(x3)-777-8-8--8-8--------------------------|
C|-777-8-8-888-3333-3-10101010-10------777-8-8--8-8--------------------------|

Solo Backing/Outro:

d|-------------------------------------------------------------------------------------|
A|-------------------------------------------------------------------------------------|
F|-------------------------------------------------------------------------------------|
C|-------------------------3-3-------------------------4-4-------------------------3-3-|
G|-5-------5-------5-------3-3-5-------5-------5-------4-4-5-------5-------5-------3-3-|
C|---6-5-3---6-5-3---6-5-3-3-3---6-5-3---6-5-3---6-5-3-4-4---6-5-3---6-5-3---6-5-3-3-3-|

d|----------------------------------|
A|----------------------------------|
F|----------------------------------|
C|-------------------------3-4-3-1--|
G|-5-------5-------5-------3-4-3-1--|
C|---6-5-3---6-5-3---6-5-3-3-4-3-1--|

The solo on this is really distorted and the riff played over it is dominant. Just solo in 
C minor though and it should sound fine.

Hope this helps.

Structure:
Intro
Verse
Bridge
Chorus
Verse
Bridge 
Chorus
Solo/backing
Verse
Bridge
Chorus
Backing as outro...

************************************

| /   slide up
| \   slide down
| h   hammer-on
| p   pull-off
| ~   vibrato
| +   harmonic
| x   Mute note
| b   Bend
| pb  Pre-bend
| br  Bend release
| pbr Pre-bend release
| brb Bend release bend

************************************
Добавлено: 14.08.2015
Другие материалы по этой песне:
  • Аккорды и текст

Страница создана 14.08.2015
http://primanota.ru/fozzy/martyr-no-more-chords.htm
Привет, Гость.
Предлагаем пройти революционный курс по гитаре.
Подарок от PrimaNota.Ru, забирай!