PrimaNota.ru - самый крупный в мире бесплатный архив песенных текстов, аккордов, табулатур и нот


Fozzy - Lights Go Out - таба, видео

Регистрация Запомнить меня
Войти через:  Facebook Google Twitter Vk Yandex Mail.ru

Fozzy - Lights Go Out - таба, видео

Печатать
Просмотров: 55
Drop D Tuning (DADGBE)

Intro
E--------------------------------------------------------|
B--------------------------------------------------------|
G--------------------------------------------------------|
D--------------------------------------------------------|
A--------------------------------------------------------|
D/5-2-2-2-2-2-2-0-/2-2-2-2-2-2-/5-2-2-2-2-2-2-0-/2-2-2-2-|

E-------------------------------------------------------|
B-------------------------------------------------------|
G-------------------------------------------------------|
D/5-2-2-2-2-2-2-0-/2-2-2-2-3--/5-2-2-2-2-2-0-/2-2-2-2---|  X2
A/5-2-2-2-2-2-2-0-/2-2-2-2----/5-2-2-2-2-2-0-/2-2-2-2---|
D/5-2-2-2-2-2-2-0-/2-2-2-2----/5-2-2-2-2-2-0-/2-2-2-2-3-|



Verse
E----------------------------------------------------|
B----------------------------------------------------|
G----------------------------------------------------|
D----------------------------------------------------|  X2
A----------------------------------------------------|
D/5-2-2-2-2-2-2-0-/2-2-2-2-2-2-/5-2-2-2-2-2-2-0-/2-2-|

E-------------------------------------------------------|
B-------------------------------------------------------|
G-------------------------------------------------------|
D/5-2-2-2-2-2-2-0-/2-2-2-2-3--/5-2-2-2-2-2-0-/2-2-2-2---|
A/5-2-2-2-2-2-2-0-/2-2-2-2----/5-2-2-2-2-2-0-/2-2-2-2---|
D/5-2-2-2-2-2-2-0-/2-2-2-2----/5-2-2-2-2-2-0-/2-2-2-2-3-|

E----------------------------------------------|
B----------------------------------------------|
G----------------------------------------------|
D/5-2-2-2-2-2-2-0-/2-2-2-2-3--5-------7--------|
A/5-2-2-2-2-2-2-0-/2-2-2-2----5-------7--------|
D/5-2-2-2-2-2-2-0-/2-2-2-2----5-------7--------|



Chorus
E-------------------------------------------------------|
B-------------------------------------------------------|
G-------------------------------------------------------|
D-0-2-0-2--0-2-0-2--0-2-0-2---5-7-5-7--5-7-5-7--5-7-5-7-|  X2
A-0-2-0-2--0-2-0-2--0-2-0-2---5-7-5-7--5-7-5-7--5-7-5-7-|
D-0-2-0-2--0-2-0-2--0-2-0-2---5-7-5-7--5-7-5-7--5-7-5-7-|

E--------------------------------------------------------|
B--------------------------------------------------------|
G--------------------------------------------------------|
D--------------------------------------------------------|
A--------------------------------------------------------|
D/5-2-2-2-2-2-2-0-/2-2-2-2-2-2-/5-2-2-2-2-2-2-0-/2-2-2-2-|



Verse
E----------------------------------------------------|
B----------------------------------------------------|
G----------------------------------------------------|
D----------------------------------------------------|
A----------------------------------------------------|
D/5-2-2-2-2-2-2-0-/2-2-2-2-2-2-/5-2-2-2-2-2-2-0-/2-2-|

E----------------------------------------------|
B----------------------------------------------|
G----------------------------------------------|
D/5-2-2-2-2-2-2-0-/2-2-2-2-3--5-------7--------|
A/5-2-2-2-2-2-2-0-/2-2-2-2----5-------7--------|
D/5-2-2-2-2-2-2-0-/2-2-2-2----5-------7--------|



Chorus
E-------------------------------------------------------|
B-------------------------------------------------------|
G-------------------------------------------------------|
D-0-2-0-2--0-2-0-2--0-2-0-2---5-7-5-7--5-7-5-7--5-7-5-7-|  X2
A-0-2-0-2--0-2-0-2--0-2-0-2---5-7-5-7--5-7-5-7--5-7-5-7-|
D-0-2-0-2--0-2-0-2--0-2-0-2---5-7-5-7--5-7-5-7--5-7-5-7-|



Bridge
E--------------------------------------------------------|
B--------------------------------------------------------|
G--------------------------------------------------------|
D--------------------------------------------------------|  X2
A--------------------------------------------------------|
D/5-2-2-2-2-2-2-0-/2-2-2-2-2-2-/5-2-2-2-2-2-2-0-/2-2-2-2-|



Chorus
E-------------------------------------------------------|
B-------------------------------------------------------|
G-------------------------------------------------------|
D-0-2-0-2--0-2-0-2--0-2-0-2---5-7-5-7--5-7-5-7--5-7-5-7-|  X4
A-0-2-0-2--0-2-0-2--0-2-0-2---5-7-5-7--5-7-5-7--5-7-5-7-|
D-0-2-0-2--0-2-0-2--0-2-0-2---5-7-5-7--5-7-5-7--5-7-5-7-|



Outro
E-------------------------------------------------------|
B-------------------------------------------------------|
G-------------------------------------------------------|
D/5-2-2-2-2-2-2-0-/2-2-2-2-3--/5-2-2-2-2-2-0-/2-2-2-2---|
A/5-2-2-2-2-2-2-0-/2-2-2-2----/5-2-2-2-2-2-0-/2-2-2-2---|
D/5-2-2-2-2-2-2-0-/2-2-2-2----/5-2-2-2-2-2-0-/2-2-2-2-3-|

E-----------------------------------------------------|
B-----------------------------------------------------|
G-----------------------------------------------------|
D/5-2-2-2-2-2-2-0-/2-2-2-2-3--/5-2-2-2-2-2-0-/2-2-2-2-|
A/5-2-2-2-2-2-2-0-/2-2-2-2----/5-2-2-2-2-2-0-/2-2-2-2-|
D/5-2-2-2-2-2-2-0-/2-2-2-2----/5-2-2-2-2-2-0-/2-2-2-2-|
Добавлено: 28.12.2015
Другие материалы по этой песне:
  • Аккорды и текст

Страница создана 28.12.2015
http://primanota.ru/fozzy/lights-go-out-chords.htm
Привет, Гость.
Предлагаем пройти революционный курс по гитаре.
Подарок от PrimaNota.Ru, забирай!