PrimaNota.ru - самый крупный в мире бесплатный архив песенных текстов, аккордов, табулатур и нот


Fozzy - Born Of Anger - текст песни, таба, видео

Регистрация Запомнить меня
Войти через:  Facebook Google Twitter Vk Yandex Mail.ru

Fozzy - Born Of Anger - текст песни, таба, видео

Печатать
Просмотров: 153
Уроки эстрадного вокала в Санкт-Петербурге
-------------------------------------------------------------------------------
                             BORN OF ANGER - Fozzy
-------------------------------------------------------------------------------
Tabbed by: milesak
E-mail: MilesAK@hotmail.co.uk

Tuning: Drop D

Intro:
                                      x x x  x  x  x x x
e|---------------------------------------------------------------------------|
B|---------------------------------------------------------------------------|
G|---------------------------------------------------------------------------|
D|-9-9-9-9--9-9-9-9--9-9-9-9--9-9-9-9----------------------------------------| (x2)
A|-9-9-9-9--9-9-9-9--9-9-9-9--9-9-9-9----------------------------------------|
D|-9-9-9-9--9-9-9-9--9-9-9-9--9-9-9-9-9-9-10-10-10-7-7-7---------------------|
                                      x x x  x  x  x  x  x  x  x
e|---------------------------------------------------------------------------|
B|---------------------------------------------------------------------------|
G|---------------------------------------------------------------------------|
D|-9-9-9-9--9-9-9-9--9-9-9-9--9-9-9-9----------------------------------------| (x2)
A|-9-9-9-9--9-9-9-9--9-9-9-9--9-9-9-9----------------------------------------|
D|-9-9-9-9--9-9-9-9--9-9-9-9--9-9-9-9-9-9-10-10-10-10/13-13-13-13------------|

Verse:
(Tremolo picking) 
e|---------------------------------------------------------------------------|
B|---------------------------------------------------------------------------|
G|---------------------------------------------------------------------------|
D|---------------------------------------------------------------------------| (Repeated throughout verse)
A|---------------------------------------------------------------------------|
D|-999999999988888888999999999-8h9/13~---------------------------------------|

Chorus:
                    x x x x x x  
e|---------------------------------------------------------------------------|
B|---------------------------------------------------------------------------|
G|---------------------------------------------------------------------------|
D|---------------------------------------------------------------------------| (Again, just repeated until
A|-9-8-9/12---9-8-9-101010101010---------------------------------------------|  the chorus ends)
D|-9-8-9/12---9-8-9-101010101010---------------------------------------------|

Riff (right after the chorus):
   x x      x x      x x      x x x  x x x 
e|---------------------------------------------------------------------------|
B|---------------------------------------------------------------------------|
G|---------------------------------------------------------------------------|
D|---------------------------------------------------------------------------| (x2)
A|---------------------------------------------------------------------------|
D|-7-7-9-10-7-7-9-10-7-7-9-10-7-9-10-7-9-10----------------------------------|

(Intro chords are repeated just before solo)

Solo 1:

e|----------------------------------14~--11-12~------------------------------|
B|---12h13-16b-12-------------12h15------------------------------------------|
G|-14---------------14~----14------------------------------------------------|
D|---------------------------------------------------------------------------| (x2)
A|---------------------------------------------------------------------------|
D|---------------------------------------------------------------------------|

The second solo will be added to this tab as soon as possible. I hope this helps. :)

Structure:
Intro
Verse
Chorus
Riff
Verse 
Chorus 
Riff
Intro chords
Solo 1
Verse
Chorus
Riff (Also played as backing for solo)
Solo 2
Riff (Played in background as song fades)


************************************

| /   slide up
| \   slide down
| h   hammer-on
| p   pull-off
| ~   vibrato
| +   harmonic
| x   Mute note
| b   Bend
| pb  Pre-bend
| br  Bend release
| pbr Pre-bend release
| brb Bend release bend

************************************
Добавлено: 14.08.2015
Другие материалы по этой песне:
  • Аккорды и текст

Страница создана 17.04.2012
http://primanota.ru/fozzy/born-of-anger-chords.htm
Привет, Гость.
Предлагаем пройти революционный курс по гитаре.
Подарок от PrimaNota.Ru, забирай!